» » »

America, Sister Golden Hair Bass tabs (ver.1)

Artists:  A B C D E F G H I J K L M N O P Q R S T U V W X Y Z # 

Sister Golden Hair Bass tabs (ver.1)

America Tabs
Rating:
0/5 (0 votes)
Sister Golden Hair lessons Tabs too difficult? Try these video lessons and learn fast
                		        Sister Golden Haid - America


Tuning: Standard EADG


Bass comes in at Verse 2

Verse 2
                E           G#m          A         E        G#m     
G|-----|----------------|------------|-------|--------|------------|
D|-----|----------------|------------|-------|--------|------------|
A|-----|-----2-2--------|--6-6----6--|-----7-|--------|--6-6----6--|
E|-12\-|-0-0-----0-0-2-3|-4----4-4--4|-5-5--4|-0-0-2-3|-4----4-4--4|

    A     F#m    C#m  G#m  A    F#m   A         E
G|-------|-------|----|----|----|----|------|-----------|
D|-------|-------|----|----|----|----|------|-----------|
A|---7---|---2-3-|-4-4|----|----|----|------|--2-0------|
E|-5---5-|-2-----|----|-4-4|-5-5|-2-2|-5-5-5|0-----4-2-0|



Chorus:
         B                     B                A               E
G|-------------------|------------------|----------------|-------------|
D|-------------------|------------------|----------------|-------------| X2
A|----------9-9-11-9-|---------9-9-11-9-|---------7-7-9-7|---2-0-------|
E|-7-7-10-11---------|-7-7-9-10---------|-5-5-8-9--------|-0-----4-2-0-|

  F#m G#m   A
G|--------------|
D|--------------|
A|--------------|
E|-2~--4~---5~--|


Do verse
Chorus
Do Chorus on "Bup do bup" part


I know there are errors in this tab..
i improvised.. especially the riff on the E chord.. i just can't figure
that out... if you have any suggestions, feel free to comment :D
Have Fun.. :D


| /  slide up
| \  slide down
| h  hammer-on
| p  pull-off
| ~  vibrato
| +  harmonic
| x  Mute note
            
Submit corrections

comments powered by Disqus
↑ Back to top | America Bass for Sister Golden Hair. Lyrics for acoustic guitar and electric guitar. Tablatures and chords are parodies/interpretations of the original songs. You may use it for private study, scholarship, research or language learning purposes only