>
 >
Save Me

Save Me Guitar Tabs

Alter Bridge - Save Me chords, tabs, tablatures, lyrics

Guitar lessons | Add/correct | Request | Top 50 tabs Artists:  A B C D E F G H I J K L M N O P Q R S T U V W X Y Z 0-9

Save Me Guitar Tabs – Alter Bridge

CD, Sheet music, Poster

Do you like Save Me? Share with your friends now
Bass TabsTabs
Tuning:drop D w/ all strings tuned down a step


Intro
gtr1(dist)
d|-----------------------------------------------------------------|
a|-----------------------------------------------------------------|
f|-------------------------9---------------------------------------|
c|-7-0-----0---7-0-----0---7-0-----4-4-----4---4-4-----4---4-4-4-/-|
g|-7-0-----0---7-0-----0---7-0-2-2-4-2-----2---4-2-----2---4-2-2-/-|
C|-7-0-----0---7-0-----0---7-0-2-3-4-4-----4---4-4-----4---4-4-4-/-|

gtr1                       PH
d|-----------------------------------------------------------------|
a|-----------------------------------------------------------------|
f|-9-----------9---------------------------------------------------|
c|-7-0-----0---7-0-----0---2~~~~~~-4-4-----4---4-4-----4---4-4-4-4-|
g|-7-0-----0---7-0-----0-----------4-2-----2---4-2-----2---4-2-2-2-|
C|-7-0-----0---7-0-----0-----------4-4-----4---4-4-----4---4-4-4-4-|

Verse1
gtr1 PM.|    PM    PM    PM...|  PM    PM    PM    PM    PM...|  PM
d|-----------------------------------------------------------------|
a|-------------3-3---2-2-------2-----------------------------------|
f|-4-----4-4---2-2---2-2-2-2-2-2-225-5-5-5-5-556-6-6-6-6-6-6-6-6-66|
c|-4-4-4-4-4-4-0-0-0-2-2-2-2-2-2-225-5-5-5-5-554-4-4-5-4-4-4-4-4-44|
g|-2-2-2-2-2-2-0-0-0-4-4-4-4-4-4-443-3-3-3-3-334-4-4-4-4-4-4-4-4-44|
C|*4-4-4-4-4-4-0-0-0---------------------------4-4---4-4-------4---|
*4th fret for 6th string option(just sounds better to me)

gtr1   PM    PM    PM    PM...|        PM    PM    PM    PM...|  
d|-----------------------------------------------------------------|
a|-------------3-3---2-2-------2-----------------------------------|
f|-4-4---4-4-442-2---2-2-2-2-2-2-225-5-5-5-5-556-6-6-6-6-6666666-66|
c|-4-4-4-4-4-440-0-0-2-2-2-2-2-2-225-5-5-5-5-554-4-4-5-4-4444444-44|
g|-2-2-2-2-2-220-0-0-4-4-4-4-4-4-443-3-3-3-3-334-4-4-4-4-4444444-44|
C|-4-4-4-4-4---0-0-0---------------------------4-4---4-4-4444444---|

gtr1   PM    PM    PM    PM...|        PM    PM    PM      PH.....|
d|-----------------------------------------------------------------|
a|-------------3-3---2-2-------2-----------------------------------|
f|-4-4---4-4-442-2---2-2-2-222-2-225-5-5-5-5-556-6-6-6-6-----------|
c|-4-4-4-4-4-440-0-0-2-2-2-222-2-225-5-5-5-5-554-4-4-5-4-x---------|
g|-2-2-2-2-2-220-0-0-4-4-4-444-4-443-3-3-3-3-334-4-4-4-4-4-2b5b2~~~|
C|-4-4-4-4-4---0-0-0-----------------------------------------------|

gtr1   PM    PM    PM    PM...|  PM    PM    PM    PM    PM  PS
d|-----------------------------------------------------------------|
a|-------------3-3---2-2-------2-----------------------------------|
f|-4-4---4-4-442-2---2-2-2-2-2-2-225-5-5-5-5-5-6-6-6-6-6-6-6-6-----|
c|-4-4-4-4-4-440-0-0-2-2-2-2-2-2-225-5-5-5-5-5-4-4-4-5-4-4-4-4-----|
g|-2-2-2-2-2-220-0-0-4-4-4-4-4-4-443-3-3-3-3-3-4-4-4-4-4-4-4-4\\\\\|
C|-4-4-4-4-4---0-0-0---------------------------4-4---4-4----\\\\\\\|

Chorus
gtr1
d|---------------5-------------------------------------5-----5---5-|
a|---------5---5-----5-----5-------------------8-----------8-----8-|
f|-7-----7-6---6-------6---6---2-2-4-----4-4-4-7-----7-------------|
c|-7-----7-7---7-----------7---2-2-4-----4-4-4-5-----5-------------|
g|-5-----5-0---0-----------0---0-0-2-----2-2-2-5-----5-------------|
C|-0-------------------------------4-----4-4-4-5-----5-------------|

gtr1
d|---------------5-------------------------------------------------|
a|---------5---5-----5-----5---5-----------------------------------|
f|-7-------6---6-------6---6---6---4-----4-4-4-7-7-----7-7-7x------|
c|-7-------7---7-----------7---7---4-----4-4-4-0-5-----5-5-5x------|
g|-5-------0---0-----------0---0-0-2-----2-2-2-0-5-----5-5-5x------|
C|-0-------------------------------4-----4-4-4-0-5-----5-5-5x------|

Preverse
gtr1                                                       PH
d|-----------------------------------------------------------------|
a|-----------------------------------------------------------------|
f|-9-----------9---------------------------------------------------|
c|-7-0-----0---7-0-----0---7-0-----4-4-----4---4-4-----4---2~~~~~~-|
g|-7-0-----0---7-0-----0---7-0-2-3-4-2-----2---4-2-----2-----------|
C|-7-0-----0---7-0-----0---7-0-2-3-4-4-----4---4-4-----4-----------|

gtr1
d|-----------------------------------------------------------------|
a|-----------------------------------------------------------------|
f|-9-----------9---------------------------------------------------|
c|-7-0-----0---7-0-----0---7-0-----4-4-----4---4-4-----4---4-4-4-4-|
g|-7-0-----0---7-0-----0---7-0-2-3-4-2-----2---4-2-----2---4-2-2-2-|
C|-7-0-----0---7-0-----0---7-0-2-3-4-4-----4---4-4-----4---4-4-4-4-|

Verse 2
gtr1 PM.|    PM    PM    PM...|  PM    PM    PM    PM    PM...|
d|-----------------------------------------------------------------|
a|-------------3-3---2-2-------2-----------------------------------|
f|-4-----4-4-442-2---2-2-2-222-2-225-5-5-5-5-556-6-6-6-6-6-6-6-6-66|
c|-4-4-4-4-4-440-0-0-2-2-2-222-2-225-5-5-5-5-554-4-4-5-4-4-4-4-4-44|
g|-2-2-2-2-2-220-0-0-4-4-4-444-4-443-3-3-3-3-334-4-4-4-4-4-4-4-4-44|
C|-4-4-4-4-4---0-0-0---------------------------4-4-4-4-4-4-4-4-4---|

gtr1   PM    PM    PM    PM...|  PM    PM    PM    PM    PM.|    PM
d|-----------------------------------------------------------------|
a|-------------3-3---2-2-------2-----------------------------------|
f|-4-4---4-4-442-2---2-2-2-2-2-2-225-5-5-5-5-5-6-6-6-6-6-6-6-6-6---|
c|-4-4-4-4-4-440-0-0-2-2-2-2-2-2-225-5-5-5-5-5-4-4-4-5-4-4-4-4-4-4-|
g|-2-2-2-2-2-220-0-0-4-4-4-4-4-4-443-3-3-3-3-3-4-4-4-4-4-4-4-4-4-4-|
C|-4-4-4-4-4---0-0-0---------------------------4-4---4-4-----4-4-4-|

gtr1   PM    PM    PM    PM...|  PM    PM    PM    PM    PM...|  PM
d|-----------------------------------------------------------------|
a|-------------3-3---2-2-------2-----------------------------------|
f|-4-4---4-4-442-2---2-2-2-2-2-2-225-5-5-5-5-556-6-6-6-6-6666666-xx|
c|-4-4-4-4-4-440-0-0-2-2-2-2-2-2-225-5-5-5-5-554-4-4-5-4-4444444-xx|
g|-2-2-2-2-2-220-0-0-4-4-4-4-4-4-443-3-3-3-3-334-4-4-4-4-4444444-xx|
C|-4-4-4-4-4---0-0-0---------------------------4-4-4---4-4444444---|

gtr1   PM    PM    PM    PM...|        PM    PM    PM    PS
d|-----------------------------------------------------------------|
a|-------------3-3---2-2-------2-----------------------------------|
f|-4-4---4-4-442-2---2-2-2-222-2-225-5-5-5-5-556-6---6-6-----------|
c|-4-4-4-4-4-440-0-0-2-2-2-222-2-225-5-5-5-5-554-4-4-4-4-4---------|
g|-2-2-2-2-2-220-0-0-4-4-4-444-4-443-3-3-3-3-334-4-4-4-4-4\\\\\\\\\|
C|-4-4-4-4-4---0-0-0---------------------------4-4-4-5-4-4\\\\\\\\\|

Chorus2
gtr1
d|---------------5-------------------------------------------------|
a|---------5---5-----5-----5-------------------0-----0-0-0-0-------|
f|-7-----7-6---6-------6---6---2-2-4-----4-4-4-0-----0-0-0-0-------|
c|-7-----7-7---7-----------7---2-2-4-----4-4-4-5-----5-5-5-5---5-5-|
g|-5-----5-0---0-----------0---0-0-2-----2-2-2-5-----5-5-5-5---5-5-|
C|-0-------------------------------4-----4-4-4-5-----5-5-5-5---5-5-|

gtr1
d|---------------5-------------------------------------------------|
a|---------5---5-----5-----5---------------------------------------|
f|-7-------6---6-------6---6---2-2-4-----4-4-4-7-----7-7-7-7-------|
c|-7---0-0-7---7-----------7---2-2-4-----4-4-4-5-----5-5-5-5---5-0-|
g|-5---0-0-0---0-----------0---0-0-2-----2-2-2-5-----5-5-5-5---5-0-|
C|-0---0-0-------------------------4-----4-4-4-5-----5-5-5-5---5-0-|

gtr1
d|---------------5-------------------------------------------------|
a|---------5---5-----5-----5-------------------0-----0-0-0-0-------|
f|-7-------6---6-------6---6---2-2-4-----4-4-4-0-----0-0-0-0-------|
c|-7-----0-7---7-----------7---2-2-4-----4-4-4-5-----5-5-5-5-5---5-|
g|-5-----0-0---0-----------0---0-0-2-----2-2-2-5-----5-5-5-5-5---5-|
C|-0-----0-------------------------4-----4-4-4-5-----5-5-5-5-5---5-|

gtr1
d|---------------5-------------------------------------------------|
a|---------5---5-----5-----5-5-------------------------------------|
f|-------7-6---6-------6---6-6-2-2-4-----4-4-4-7-7-----7-7-7-------|
c|-0-----0-7---7-----------7-7-2-2-4-----4-4-4-0-5-----5-5-5---5-0-|
g|-0-----0-0---0-----------0-0-0-0-2-----2-2-2-0-5-----5-5-5---5-0-|
C|-0-----0-------------------------4-----4-4-4-0-5-----5-5-5---5-0-|

bridge
gtr1
d|-0---------------------------------------------------------------|
a|-5---------------------------------------------------------------|
f|-7---------------------------------------------------------------|
c|-7---------------------------------------------------------------|
g|-0---------------------------------------------------------------|
C|-0---------------------------------------------------------------|
gtr2(clean)w/ fingers
d|-5-------------------------------2-------------2-----------------|
a|-5-------------------------------2-----------------2-------------|
f|-7-------------------------------4-------------------4-----------|
c|-7-------------------------------4-------------------------------|
g|-5-------------------------------2-----------2-------------------|
C|-0-------------------------------2-------------------------------|

gtr2 
d|-5-------------------------------2-------------2-----------------|
a|-5-------------------------------2-----------------2-------------|
f|-7-------------------------------4-------------------4-----------|
c|-7-------------------------------4-------------------------------|
g|-5-------------------------------2-----------2-------------------|
C|-0-------------------------------2-------------------------------|

gtr2
d|---------5-------------------------------2-----------------------|
a|---5-------5-----5-----------------2-------2-----2---------------|
f|-----7-------7-----7-----7-----------4-------4-----4-----4-------|
c|---------------7-----7-------------------------4-----4-----4-----|
g|-5-----5----------------------\--2-----2---------------2-----2-/-|
C|-----------------------------------------------------------------|

gtr2
d|---------5-------------------------------2-----------------------|
a|---5-------5-----5-----------------2-------2-----2---------------|
f|-----7-------7-----7-----7-----------4-------4-----4-----4-------|
c|---------------7-----7-------------------------------4-----------|
g|-5-----5---------------5------\--2-----2-------2-------2---------|
C|-----------------------------------------------------------------|

gtr2
d|-----------------------------------------------------------------|
a|-5-5-5-------------5-5-5-5-------2---2---2-----0-0-2-2-2---0-0---|
f|-7-7-7---------7-7-7-7---7-7-7-------4-----4-4-4-4-4-4-4---4-4---|
c|-------0-0-0-0---------------------------------------------------|
g|-5-5-5-5-5-5-5-5-5-5-5-5---5-5---2-2-2-2-2-2-2-2-2---2-2---2-2---|
C|-----------------------------------------------------------------|

gtr2
d|-----------------------------------------------------------------|
a|-5-5-5-------------5-5-5-5---------------------------------------|
f|-7-7-7---------7-7-7-7---7-7-7-----------------------------------|
c|-------0-0-0-0---------------------------------------------------|
g|-5-5-5-5-5-5-5-5-5-5-5-5---5-5-----------------------------------|
C|-----------------------------------------------------------------|
gtr1                       PS                               PS
d|-----------------------------------------------------------------|
a|-----------------------------------------------------------------|
f|---------------------------------4-4-4-4-4-4-4-4-4-4-4-4-4-------|
c|---------------------------------4-4-4-4-4-4-4-4-4-4-4-4-\\\-----|
g|--------------------------\\\\\\-2-2-2-2-2-2-2-2-2-2-2-2-2\\\\\--|
C|-------------------------\\\\\\\\4-4-4-4-4-4-4-4-4-4-4-4-4-\\\\\\|

Prechorus
gtr1                                                       PH
d|-----------------------------------------------------------------|
a|-----------------------------------------------------------------|
f|-9-----------9---------------------------------------------------|
c|-7-0-----0---7-0-----0---7-0-----4-4-----4---4-4-----4---2~~~~~~-|
g|-7-0-----0---7-0-----0---7-0-2-3-4-2-----2---4-2-----2-----------|
C|-7-0-----0---7-0-----0---7-0-2-3-4-4-----4---4-4-----4-----------|

gtr1                                                        PS
d|-----------------------------------------------------------------|
a|-----------------------------------------------------------------|
f|-9-----------9---------------------------------------------------|
c|-7-0-----0---7-0-----0---7-0-----4-4-----4---4-4-----4-----------|
g|-7-0-----0---7-0-----0---7-0-2-3-4-2-----2---4-2-----2---\\\\\\\\\
C|-7-0-----0---7-0-----0---7-0-2-3-4-4-----4---4-4-----4---\\\\\\\\\

3rd Chorus
gtr1  PS                       PS
d|-------000-----5-------------------------------------------------|
a|-------555---5-----5-----5-5-----------------0-----0-0---0-0-0---|
f|-7-----666---6-------6---6-6-----4-----4-4-4-0-----0-0---0-0-0---|
c|-7-----777---7-----------7-7-----4-----4-4-4-5-----5-5---5-5-5-0-|
g|-5---\\--0---------------0-0-\\\\2-----2-2-2-5-----5-5---5-5-5-0-|
C|-0--\\\\\\--------------------\\\4-----4-4-4-5-----5-5---5-5-5-0-|

gtr1
d|---------0-----5-------------------------------------------------|
a|---------5---5-----5-----5-5-------------------------------------|
f|-7-----7-6---6-------6---6-6-2-2-4-----4-4-4-7-7---7-7-7-7-7---7-|
c|-7-----7-7---7-----------7-7-2-2-4-----4-4-4-5-5---5-5-5-5-5---5-|
g|-5-----5-0---0-----------0-0-0-0-2-----2-2-2-5-5---5-5-5-5-5---5-|
C|-0-----0-------------------------4-----4-4-4-5-5---5-5-5-5-5---5-|

gtr1                          PS
d|---------------5-------------------------------------------------|
a|---------5---5-----5-----5-5-----4-----4-444---------------------|
f|-7-----7-6---6-------6---6-6-----4-----4-444-7-7---7-7-7-7-7-7-7-|
c|-7-----7-7---7-----------7-7-----2-----2-222-5-5---5-5-5-5-5-5-5-|
g|-0-----0-0---------------0-0-\\\-4-----4-444-5-5---5-5-5-5-5-5-5-|
C|-0-----0--------------------\\\\\------------5-5---5-5-5-5-5-5-5-|

gtr1
d|---------------5-------------------------------------------------|
a|---------5---5-----5-----5-5-----4-----4-4-4---------------------|
f|-7-----7-6---6-------6---6-6-222-4-----4-4-4-7-7---7-7-7-7-------|
c|-7-----7-7---7-----------7-7-222-2-----2-2-2-5-5---5-5-5-5x------|
g|-0-----0-0---------------0-0-000-4-----4-4-4-5-5---5-5-5-5x------|
C|-0-----0-------------------------------------5-5---5-5-5-5x------|

Outro
gtr1                                                       PH
d|-----------------------------------------------------------------|
a|-----------------------------------------------------------------|
f|-9-----------9---------------------------------------------------|
c|-7-0-----0---7-0-----0---7-0-----4-4-----4---4-4-----4---2~~~~~~-|
g|-7-0-----0---7-0-----0---7-0-2-3-4-2-----2---4-2-----2-----------|
C|-7-0-----0---7-0-----0---7-0-2-3-4-4-----4---4-4-----4-----------|

gtr1
d|-----------------------------------------------------------------|
a|-----------------------------------------------------------------|
f|-9-----------9---------------------------------------------------|
c|-7-0-----0---7-0-----0---7-0-----4-4-----4---4-4-----4---4-4x----|
g|-7-0-----0---7-0-----0---7-0-2-3-4-2-----2---4-2-----2---4-2x----|
C|-7-0-----0---7-0-----0---7-0-2-3-4-4-----4---4-4-----4---4-4x----|





Comments


Popular Alter Bridge tabs & chords
Brand New Start Bass Tabs
Burn It Down 2 Bass Tabs
All Hope Is Gone Chords
Watch Over You 3 Chords
Burn It Down 6 Tabs
Fallout Tabs
Fallout 2 Tabs
One Day Remains Tabs
Wayward One Intro Tabs
Wonderful Life Ukulele


Song lyrics



↑ Back to top | Tablatures and chords are parodies/interpretations of the original songs. You may use it for private study, scholarship, research or language learning purposes only
© 2014 AZChords.com Contact us | Privacy policy | DMCA | Add/correct tabs | Request tabs | Top 50 tabs