» » »

Allman Brothers, Aint Wastin Time No More Tabs (ver.1)

Artists:  A B C D E F G H I J K L M N O P Q R S T U V W X Y Z # 

Aint Wastin Time No More Tabs (ver.1)

Allman Brothers Tabs
 Rating:
4/5 (4 votes)
Aint Wastin Time No More lessons Tabs too difficult? Try these video lessons and learn fast
1
                Ain't Wastin' Time No More
Allman Brothers
______________________________________
Intro:
-7--3b-------|----7~--|---------|
-------3b-0--|--3-----|--3b--0--|
-------------|--------|---------|
-------------|--------|---------|
-------------|--------|---------|
-------------|--------|---------|

Verse One:
Last Sunday mornin' the sunshine felt like rain
Week before they all seemed the same
With the help of god and true friends I come to realize
I still had two stong legs,and even wings to fly

Licks for the first verse:
After line 1:   After line 2:   After line 3:   Middle of line 4:
--5b--7--------|--2b--2b-------|--0--2b--0---7-|------------------|
--------3b--0--|---------3b--0-|-----------3---|--3--3--0--3b--0--|
---------------|---------------|---------------|------------------|
---------------|---------------|---------------|------------------|
---------------|---------------|---------------|------------------|
---------------|---------------|---------------|------------------|

Chorus:
--7------7/9--2----------------------|
------------------3--0---------------|
-------------------------------------|
-------------------------------------|
-------------------------------------|
-------------------------------------|

Chorus lyrics:
No I ain't wastin' time no more,as time goes by like
Hurricanes,and much faster things

There's this little lick in between the chorus and verse:
--------------7~---|
--0--5b--3--0------|
-------------------|
-------------------|
-------------------|
-------------------|

Second Verse:
Lord,lord,miss Sally why all you're cryin'?
Been around here three long days lookin' like you're dyin'
Just step yourself outside look up at the stars above
Go on downtown baby,fing somebody to love

Fills for the second verse:
-2b--2b-------|------------|-------7----7-|-8b-7--5b------|
--------3~-0--|--7--5p[4]--|--0-3b--0-3---|----------3~-0-|
--------------|------------|--------------|---------------|
--------------|------------|--------------|---------------|
--------------|------------|--------------|---------------|
--------------|------------|--------------|---------------|

Chorus:
--7------7/9--2--------------------|
------------------3--0-------------|
-----------------------------------|
-----------------------------------|
-----------------------------------|
-----------------------------------|

Chorus lyrics:
Meanwhile I ain't wastin' time no more as time goes by like
Pourin' rain and much faster things

You don't need no gypsy to tell you why
--7------5b--2b--2-------|
----7--3-----------3--0--|
-------------------------|
-------------------------|
-------------------------|
-------------------------|

You can't let one precious day slip by
----7---7--5b-----------|
--3---3-------3p0-------|
------------------2-4~--|
------------------------|
------------------------|
------------------------|

Look inside yourself and if you don't see what you want
Mabye sometimes if you don't
Leave your mind alone and just just get high

Solo[I'm almost positive this is wrong]:
-6/20---11-10--6~--6/20---11-10--6~--|
-------------------------------------|
-------------------------------------|
-------------------------------------|
-------------------------------------|
-------------------------------------|

[This part is very hard to figure out,so I'm just putting as close as I can get]
-13-13-13-13--10--13--11-10--13~--11-10--13~--11-10--13/[16]-|
-------------------------------------------------------------|
-------------------------------------------------------------|
-------------------------------------------------------------|
-------------------------------------------------------------|
-------------------------------------------------------------|

-13--13p11p10--13~--11--10--13~------------------------------|
--------------------------------16-15-16-15-16-15-16/18--13--|
-------------------------------------------------------------|
-------------------------------------------------------------|
-------------------------------------------------------------|
-------------------------------------------------------------|

-7b--7--7-5-4--7~--10~---------------|
-----------------------7-7-7--3b--0--|
-------------------------------------|
-------------------------------------|
-------------------------------------|
-------------------------------------|

Right before the third verse:
----7--------|
--3---3~--0--|
-------------|
-------------|
-------------|
-------------|

Third Verse:
By and by way out many years ago
And all the war freaks die off,leavin' us alone
We'll raise are children in the peaceful way we can
It's up to you and me,brother,to try and try again

Fills for the third verse:
-7p5h7------|-----------------|-5~-----7~-|-8b-7--5b------|
-------3~-0-|-----------------|---3--0----|----------3~-0-|
------------|---------------3-|-----------|---------------|
------------|-3-6-3-6-3-6-3---|-----------|---------------|
------------|-----------------|-----------|---------------|
------------|-----------------|-----------|---------------|

Chorus:
-7~-----7/9--2-----------|
---------------3b--0-----|
-------------------------|
-------------------------|
-------------------------|
-------------------------|

Chorus Lyrics:
So hear us now,we ain't wastin' time no more as time goes by like
Hurricanes runnin' after the subway train
Don't forget the pourin' rain

Outro Solo:
-7--2--------------------7-5p2----7~----2------|
------3~-0---------------------3----------3----|
--------------2---2---4~--------------------4--|
----------------4---4--------------------------|
-----------------------------------------------|
-----------------------------------------------|

----------------------------------------|
------------------------------4b-4b-4---|
-4--4--4-2---4----2---2---4-----------4-|
-----------4--------4---4---------------|
----------------------------------------|
----------------------------------------|

-------------------------------------------|
-----------------------------5-4-----------|
-2---2---2---2---2---2---2-------4---7--4--|
---4---4---4---4---4---4-------------------|
-------------------------------------------|
-------------------------------------------|

[Slowly fade out here]
---7~---7-7b---7-------------|
-3----3------3---3b-3b-0-----|
-----------------------------|
-----------------------------|
-----------------------------|
-----------------------------|
            
Submit corrections

comments powered by Disqus
↑ Back to top | Allman Brothers Tabs for Aint Wastin Time No More. Lyrics for acoustic guitar and electric guitar. 1 Tablatures and chords are parodies/interpretations of the original songs. You may use it for private study, scholarship, research or language learning purposes only