» » »

Wild Flowers Tabs (ver.1)

Artists:  A B C D E F G H I J K L M N O P Q R S T U V W X Y Z # 

Wild Flowers Tabs (ver.1)

All About Eve
Rating:
0/5 (0 votes)

Hard to play? Try these video lessons and learn fast.
                
#------------------------------------------------------------------------------##

All About Eve: Wild Flowers

This is from memory, so please email any corrections, suggestions, etc.

Intro/Verse:

e|------------------------------------0----------------------------------------|
b|------3--------3------3---------------3------3--------3-------3--------------|
g|----2--------2---2--2-------------2--------2--------2---2---2---2------------|
d|--0--------------------------2h3---------0-------------------------3h0-------|
a|-----------3------2-------------------------------3------2--------------3h0--|
e|-----------------------------------------------------------------------------|

Prechorus:
e|-----------0------------------0----------------0----------------0------------|
b|---------0---0--------------0---0------------0---0------------0---0----------|
g|------5--------5------5---5-------5----5---5-------5----5---5-------5---5----|
d|----7------------7------5-----------5----4-----------4----3-----------3------|
a|-----------------------------------------------------------------------------|
e|-----------------------------------------------------------------------------|

Chorus:
e|---------------------------------------------0-----------------0----------|
b|------0-----0---0------0-----0----0--------0---0-------------0---0--------|
g|----0-----0----------0-----0-------------5-------5-----5---5-------5---5--|
d|--2-----4-----5-----2-----4-----5------7-----------7-----5-----------5----|
a|--------------------------------------------------------------------------|
e|--------------------------------------------------------------------------|

Note that the guitar part on the album doesn't always stick to these exact
phrasings, so feel free to add / remove / improvise around this.
I would have put in the number of times you play each part, and the sequence to 
play them in, only I didn't.  You can work it out from the record anyway.
Happy Playing!
                                                        Ian.
            
Hard to play? Try these video lessons and learn fast. | Correct




comments powered by Disqus
↑ Back to top | Tablatures and chords are parodies/interpretations of the original songs. You may use it for private study, scholarship, research or language learning purposes only