» » »

Alistair Griffin, Just Drive Tabs (ver.2)

Artists:  A B C D E F G H I J K L M N O P Q R S T U V W X Y Z # 

Just Drive Tabs (ver.2)

Alistair Griffin Tabs
 Rating:
4/5 (6 votes)
Just Drive lessons Tabs too difficult? Try these video lessons and learn fast
                -------------------------------------------------------------
                             Just Drive – Alistair Griffin
-------------------------------------------------------------------------------

Tuning:standard

Verse 

e|-----------1-------------------1------------------1-----------------1------|
B|---------------------------------------------1-------1---------1--------1--|
G|-------3------3-----------3--------3---------------------------------------|
D|--1-------------------0-------------------3---------------3----------------|
A|---------------------------------------------------------------------------|
E|---------------------------------------------------------------------------|
                                                       repeat  x 4


Chorus


Eb             Bb           Gm              F
I wanna be the only one to make it to the light
Eb             Bb                Gm              F
Take it to the edge where I have died a thousand times
Eb                Bb         Gm     
And maybe I could be the one
                  F              Eb Bb Gm
To ride into the setting sun tonight


Just drive

E|-----------1-------------------1------------------1------------------------|
B|---------------------------------------------1-------1-----1-h-3-p-1------
G|-------3------3-----------3--------3------------------------------------3--|
D|--1-------------------0-------------------3--------------------------------|
A|---------------------------------------------------------------------------|
E|---------------------------------------------------------------------------|


Back to verse 2 


e|-----------1-------------------1------------------1-----------------1------|
B|---------------------------------------------1-------1---------1--------1--|
G|-------3------3-----------3--------3---------------------------------------|
D|--1-------------------0-------------------3---------------3----------------|
A|---------------------------------------------------------------------------|
E|---------------------------------------------------------------------------|
                                                       repeat  x 4

 Back to Chorus


1.  There is a star that lights the road
Will it take me to the end well I don't know
But for one last time
I'll take this ride
And just drive


Chorus


2.  Breathing out I breathe it in
Broken down but I will live to fight again
For one last time
I'll take this ride
And just drive

Chorus

3.  There is a star that lights the road
Will it take me to the end well I don't know

Chorus
            
Submit corrections

comments powered by Disqus
↑ Back to top | Alistair Griffin Tabs for Just Drive. Lyrics for acoustic guitar and electric guitar. Tablatures and chords are parodies/interpretations of the original songs. You may use it for private study, scholarship, research or language learning purposes only