>
 >
Hey Stoopid

Hey Stoopid Bass Tabs

Alice Cooper - Hey Stoopid chords, tabs, tablatures, lyrics

Guitar lessons | Add/correct | Request | Top 50 tabs Artists:  A B C D E F G H I J K L M N O P Q R S T U V W X Y Z 0-9

Hey Stoopid Bass Tabs – Alice Cooper

CD, Sheet music, Poster

Do you like Hey Stoopid? Share with your friends now
Bass TabsBass Tabs v2Bass Tabs v3ChordsTabs
"Hey, hey, hey, hey. Hey, hey, hey, hey. Hey Stoopid."


G-|---------------------------------------------------------------------------|
D-|---------------------------------------------------------------------------|
A-|-----------------------------------2----3----------------------------------|
E-|--5--5--5--5--5--5--5--5--5--5--5-----------1--1--1--1--1--1--1--1--1------|


G-|---------------------------------------------------------------------------|
D-|---------------------------------------------------------------------------|
A-|-0---2--3---3--3--3--3--3--3--3--3--3--3---3---3--3------------------------|
E-|-----------------------------------------------------3--3--3--3--3--3--3---|


                               "Hey, bro..."
G-|---------------------------------------------------------------------------|
D-|---------------------------------------------------------------------------|
A-|--------------------------------------------------------2---3--3-----------|
E-|--3--3--3--3--3--3--3--5--5--5--5--5--5--5--5--5--5--5------------1--------|


G-|---------------------------------------------------------------------------|
D-|---------------------------------------------------------------------------|
A-|--------------------------0---2---3--3--3--3--3--3--3--3--3--3--3--3--3--3-|
E-|--1--1--1--1--1--1--1--1---------------------------------------------------|


G-|---------------------------------------------------------------------------|
D-|---------------------------------------------------------------------------|
A-|---3-----------------------------------------------------------------------|
E-|------3--3--3--2--3--3--3--3---3---3--3--2--3--5--5--5--5--5--5--5--5--5---|



G-|---------------------------------------------------------------------------|
D-|---------------------------------------------------------------------------|
A-|--------2---3--3------------------------------0---2---3--3--3--3--3--3--3--|
E-|--5--5------------1---1--1--1--1--1--1--1--1-------------------------------|


G-|---------------------------------------------------------------------------|
D-|---------------------------------------------------------------------------|
A-|--3--3--3--3--3--3--3--3--3--3---------------------------------------------|
E-|--------------------------------3---3--3--2--3--3--3--3--3--3--3--3--3--3--|


       "Now I  know  you've been..."
G-|---------------------------------------------------------------------------|
D-|---------------------------------------------------------------------------|
A-|------------3--3--5---5--7----5---5---3------------3---3--3---------5------|
E-|--3--3---5-------------------------------5--3--1-------------3---3---------|


G-|---------------------------------------------------------------------------|
D-|---------------------------------------------------------------------------|
A-|--5--5--------3--3--5--5--7---5---5---3------------3---3--3----------------|
E-|--------3--5-----------------------------5--3--1-------------3--3--3--3--3-|


                  "Hey, hey, hey,  hey..."
G-|---------------------------------------------------------------------------|
D-|--5-5-5-5-3---------------5--5--6------6--5-----8--------------------------|
A-|------------5---3----6-----------------------8------10\--1--3--1--3--3--3--|
E-|---------------------------------------------------------------------------|


G-|---------------------------------------------------------------------------|
D-|------------------------------------5--5--6--6--5-----/10--8---------------|
A-|----------------------------3---6------------------8----------3--1--3--3--3|
E-|-3---4---4--4--6---6--4--3-------------------------------------------------|


G-|---------------------------------------------------------------------------|
D-|---------------------------------------------------------------------------|
A-|----------------------------------------------------------3--3--3--3-------|
E-|--3---3--4--4---6---6--4--1---1---1--1--3--3--3--3--3----------------------|


                                   "Come on, girl..."
G-|---------------------------------------------------------------------------|
D-|---------------------------------------------------------------------------|
A-|--3--3--3--3--3--1---1---1---0---------------------------------2---3--3----|
E-|---------------------------------5--5--5--5--5--5--5--5--5--5------------1-|


G-|---------------------------------------------------------------------------|
D-|---------------------------------------------------------------------------|
A-|--------------------------0---2---3--3--3--3--3--3--3--3--3--3--3--3--3--3-|
E-|--1--1--1--1--1--1--1--1---------------------------------------------------|


G-|---------------------------------------------------------------------------|
D-|---------------------------------------------------------------------------|
A-|---3-----------------------------------------------------------------------|
E-|-------3--3--3--3--3--3--3--3---3--3--0--3--3--3--5--5--5--5--5--5--5--5--5|


G-|---------------------------------------------------------------------------|
D-|---------------------------------------------------------------------------|
A-|-----------2---3--3-------------------------------0---2---3--3--3--3--3--3-|
E-|--5--5--5------------1---1--1--1--1--1--1--1---1---------------------------|


G-|---------------------------------------------------------------------------|
D-|---------------------------------------------------------------------------|
A-|--3--3--3--3--3--3--3--3--3--3--3--3--3--3---------------------------------|
E-|--------------------------------------------3--3--3--3--3--3--3--3--3--3---|


                    "I   know  you've been..."
G-|---------------------------------------------------------------------------|
D-|---------------------------------------------------------------------------|
A-|----------------------3--3--5--5---7-----5---5---3------------3---3--------|
E-|--3--0--3--3--3---5---------------------------------5--3--1----------1--1--|



G-|---------------------------------------------------------------------------|
D-|---------------------------------------------------------------------------|
A-|------5---5---------3--3--5--7--7---5---5---3------------3--3--------------|
E-|--3-----------3--5-----------------------------5--3--1----------1--3--3--3-|


                        "Hey, hey, hey,  hey..."
G-|---------------------------------------------------------------------------|
D-|--------5-5-5-5-3----------6----5--5--6----6--5-----8--8-------------------|
A-|------------------5---3--------------------------8--------8\--1---3--2--3--|
E-|--3--3---------------------------------------------------------------------|



G-|---------------------------------------------------------------------------|
D-|----------------------------8--6--------------5--5--6--6--5-----/10---8----|
A-|--3--3------1---------------------8\---3---6-----------------8-----------1-|
E-|--------3------4--4--4--6--------------------------------------------------|


G-|---------------------------------------------------------------------------|
D-|-------------------------------------------------------3-------------------|
A-|--3--1--3--3--3------------------------------------------------------------|
E-|-----------------3----4--4--4--4---6----6--6--6\---1-------1--1--3--3--3---|


G-|---------------------------------------------------------------------------|
D-|---------------------------------------------------------------------------|
A-|------------3--3--3--3--3--3--3--3--3--------3---3--3----------------------|
E-|--3--3---------------------------------1--3------------1-------------------|


  Guitar solo
G-|---------------------------------------------------------------------------|
D-|---------------------------------------------------------------------------|
A-|---------------------------------------------------------------------------|
E-|--3--3--3--3--3--3--3--3--5--5--5--5--5--5--5--5--7--7--7--7--7--7--7--7---|


G-|---------------------------------------------------------------------------|
D-|---------------------------------------------------------------------------|
A-|--5--5--5--5--5--5--5--5---------------------------------------------------|
E-|--------------------------3--3--3--3--3--3--3--3--5--5--5--5--5--5--5--5---|


G-|---------------------------------------------------------------------------|
D-|---------------------------------------------------------------------------|
A-|---------------------------------------------------------------------------|
E-|--2--2--2--2--2--2--2--2--2--2--2--2--2--2--2--2---------------------------|


   "This ain't your..."
G-|---------------------------------------------------------------------------|
D-|---------------------------------------------------------------------------|
A-|-----------------------------------------5--4--2---------------------------|
E-|--3--3--3--3--3--3--3--3--3--3--3--3--3-----------5--5--5--5--5--5--5--5---|


G-|---------------------------------------------------------------------------|
D-|---------------------------------------------------------------------------|
A-|-----------------5--4--------------------------------------------5--4--2---|
E-|--5--5--5--5--5--------5--3--3--3--3--3--3--3--3--3--3--3--3--3------------|


G-|---------------------------------------------------------------------------|
D-|---------------------------------------------------------------------------|
A-|---------------------------------------------------------------------------|
E-|--5--5--5--5--5--5--5--5--5--5--5--5--5--5--5--5--2--2--2--2--2--2--2--2---|


G-|---------------------------------------------------------------------------|
D-|---------------------------------------------------------------------------|
A-|--------------------------1--1--1--1--1--1--1--1--5--5--5--5--5--5--5--5---|
E-|--2--2--2--2--2--2--2--2---------------------------------------------------|


    "Hey, hey, hey, hey..."
G-|---------------------------------------------------------------------------|
D-|---------------------------------------------------------------------------|
A-|--3\------------------------3\---------------------1--1--1--1--1--1--1--1--|
E-|---------------------------------------------------------------------------|


                           "Hey,  hey, hey,  hey..."
G-|---------------------------------------------------------------------------|
D-|------------------------------------5--5--6-----6--5-----8-----------------|
A-|--------------------7\-----3---6----------------------8------10\1--3--1----|
E-|--3--3--3--3--3--3---------------------------------------------------------|


G-|---------------------------------------------------------------------------|
D-|------------------------------------------------5--5--6---6--5-----/10---8-|
A-|--3--3--3------------------------------3----6-------------------8----------|
E-|-----------3-----4--4--4--6---6--4--3--------------------------------------|


G-|---------------------------------------------------------------------------|
D-|---------------------------------------------------------------------------|
A-|--3--1--3--3--3--------------------------------------------3---------------|
E-|-----------------3----3---4--4--4--6----6--4--3---1--1--1------1--1--1-----|



G-|---------------------------------------------------------------------------|
D-|-----------------------------------5--5--6----6--5-----8-------------------|
A-|-----------------5--5--4---3---6--------------------8------10\-1-----------|
E-|--3--3--3--3--3------------------------------------------------------------|



G-|---------------------------------------------------------------------------|
D-|--------------------------------------------------------5--5--6---6--5-----|
A-|--3--1--3--3--3-------------------------------3----6-----------------------|
E-|-----------------3---3--4--4--4--6---6--4--3-------------------------------|



G-|---------------------------------------------------------------------------|
D-|-----/10---8---------------------------------------------------------------|
A-|--8------------3--1--3--3--3-----------------------------------------------|
E-|------------------------------3---3--4--4--4--6---6--4--3--1--1--1--1--1---|


                             "Hey, Stoopid."
G-|---------------------------------------------------------------------------|
D-|---------------------------------------------------------------------------|
A-|---------------------------------------------------------------------------|
E-|--1--1--1--3--3--3--3--3---------------------------------------------------|





Comments


Popular Alice Cooper tabs & chords
I´M 18 Bass Tabs
Hell Is Living Without You Chords
Killed By Love 1 Chords
I Love The Dead Tabs
No More Mr Nice Guy 2 Tabs
Raped And Freezin Live Intro 1 Tabs
Steven Tabs
Stolen Prayer Tabs
Vengeance Is Mine Tabs
Take It Like A Woman Ukulele


Song lyrics



↑ Back to top | Tablatures and chords are parodies/interpretations of the original songs. You may use it for private study, scholarship, research or language learning purposes only
© 2014 AZChords.com Contact us | Privacy policy | DMCA | Add/correct tabs | Request tabs | Top 50 tabs