» » »

Halo Of Flies Tabs (ver.2)

Artists:  A B C D E F G H I J K L M N O P Q R S T U V W X Y Z # 

Halo Of Flies Tabs (ver.2)

Alice Cooper
Rating:
0/5 (0 votes)

Hard to play? Try these video lessons and learn fast.
                Halo of Flies

This song is the best on Killer, and I couldn't find a
version using only chord names and notes, so I took that
and transcribed it into tab. Most of it is the other guys
work but I don't have his name, but I through some in too.
It's not exact, but it sounds good, so have fun.

EMB

intro
|-0-0h1-0-0h1-0-0h1-0-0h1----|
|----------------------------|
|----------------------------|
|----------------------------|
|----------------------------|
|----------------------------|
play lots of times then have 2nd guitar play:

|-3-3h4-3-3h4-3-3h4-3-3h4-7-7h8-7-7h8-7-7h8-7-7h8-12h13--|
|--------------------------------------------------------|
|--------------------------------------------------------|
|--------------------------------------------------------|
|--------------------------------------------------------|
|--------------------------------------------------------|
etc. you get the idea, 2nd guitarist plays same pattern
higher and higher on the neck

then play rhythm part:
|---------------------------------------------------------|
|---------------------------------------------------------|
|-3-2-3-----2-3-2--5-4-5----9/---4-4-4---5-5-5-5--7-7-7-7-|
|-3-2-3-----2-3-2--5-4-5----9/---4-4-4---5-5-5-5--7-7-7-7-|
|-1-0-1-----0-1-0--3-2-3----7/---2-2-2---3-3-3-3--5-5-5-5-|
|---------------------------------------------------------|

lead: Play twice
|----------------------0-1-0----------------|
|---1----3-2-0-3-5-3-1-------4---0-3-0-4-0--|
|-----2-------------------------------------|
|-2-----------------------------------------|
|-------------------------------------------|
|-------------------------------------------|

then palm muted rhythm: Play twice
|---------------------------------------------------------|
|---------------------------------------------------------|
|---------------------------------------------------------|
|-9-x-9-x-9-x-9-x-9-x-9-/-5-x-5-x-5-x-5-x-7-x-7-x-7-x-7---|
|-9-x-9-x-9-x-9-x-9-x-9-/-5-x-5-x-5-x-5-x-7-x-7-x-7-x-7---|
|-7-x-7-x-7-x-7-x-7-x-7-/-3-x-3-x-3-x-3-x-5-x-5-x-5-x-5---|
pm........................................................


the basic melody that mirrors Alice's vocal line:
|---------------------------------------2-2-2-3-0----|
|-3-1---1-0---------------------0-1-3-5--------------|
|-----2------0-4-2-0-2-2--0-0-2----------------------|
|----------------------------------------------------|
|----------------------------------------------------|
|----------------------------------------------------|

|-3-2-0-2-2-2-----0-------------------0-3-2-0-2------|
|-------------1-3---3----------0-1-3-----------------|
|---------------------2-2-0-2------------------------|
|----------------------------------------------------|
|----------------------------------------------------|
|----------------------------------------------------|
continue this through the verses

when Alice ends the verse with the line: "secrets of soul",
play:
|--3-2--0--2----0----------------|
|------------------3--1--3-------|
|--------------------------------|
|--------------------------------|
|--------------------------------|
|--------------------------------|

after the long part that begins with "daggers and contacts
and bright shining limos" play these chords:
|-0--0--3-3---2----0--0--3-3----0------------|
|-1--1--3-3---3----1--1--3-3----0------------|
|-0--0--0-0---2----0--0--0-0----1------------|
|-2--2--0-0---0----2--2--0-0----2------------|
|-3--3--2-2--------3--3--2-2----2------------|
|-------3-3--------------3-3----0------------|

then this again: Play twice during "the elegance of China"
|---------------------------------------------------------|
|---------------------------------------------------------|
|---------------------------------------------------------|
|-9-x-9-x-9-x-9-x-9-x-9-/-5-x-5-x-5-x-5-x-7-x-7-x-7-x-7---|
|-9-x-9-x-9-x-9-x-9-x-9-/-5-x-5-x-5-x-5-x-7-x-7-x-7-x-7---|
|-7-x-7-x-7-x-7-x-7-x-7-/-3-x-3-x-3-x-3-x-5-x-5-x-5-x-5---|
pm........................................................

Play this when Alice yells "Flies!"
|---------------|
|---------------|
|---4---4-------|
|---4---4-------|
|-0h2-0h2-------|
|---------------|

that leads directly into:
|--------------------------------------------|
|--------------------------------------------|
|-4--6--7--9--7--6--4--6--7--9--11-14--------|
|-4--6--7--9--7--6--4--6--7--9--11-14--------|
|-2--4--5--7--5--4--2--4--5--7---9/12--------|
|--------------------------------------------|

then play this part: lots of times
|--------------------------------------------|
|--------------------------------------------|
|------------5--7-x-x-x-x-x------------------|
|-x-x-x-x-x--5--7-x-x-x-x-x---5--7-----------|
|-x-x-x-x-x--3--5-x-x-x-x-x---5--7-----------|
|-x-x-x-x-x-------x-x-x-x-x---3--5-----------|

Then the slow break: play a few times
|---------------------------1h3-1-0------------------|
|-5-4h5p4-0------0-1p0---0--------------0-1-2-3-4-5--|
|--------------2-------2--------------2--------------|
|----------------------------------------------------|
|----------------------------------------------------|
|----------------------------------------------------|

then play this again: a few times
|--------------------------------------------|
|--------------------------------------------|
|-4--6--7--9--7--6--4--6--7--9--11-14--------|
|-4--6--7--9--7--6--4--6--7--9--11-14--------|
|-2--4--5--7--5--4--2--4--5--7---9/12--------|
|--------------------------------------------|

after slow break, 1 guitar plays:
|--------------------|
|--------------------|
|--10-/-5-/-10-------| play this over and over
|--------------------| until end of song
|--------------------|
|--------------------|

other guitar plays escalating lead:
|-----------------------------------------------|
|-----------------------------------------------|
|-0-2-3-5-3-2-3-2-0-2-0---0-2-3-5-3-2-3-2-0-2---|
|-----------------------3-----------------------|
|-----------------------------------------------|
|-----------------------------------------------|x2

|-----------------------------------------------|
|-----------------------------------------------|
|-0-2-3-5-3-2-3-2-0-2-0---0---------------------|
|-----------------------3-----------------------|
|-----------------------------------------------|
|-----------------------------------------------|

|-----------------------------------------------|
|-0-2-3-5-3-2-3-2-0-2-0---0-2-3-5-3-2-3-2-0-2---|
|-----------------------2-----------------------|
|-----------------------------------------------|
|-----------------------------------------------|
|-----------------------------------------------|x2

|-----------------------------------------------|
|-0-2-3-5-3-2-3-2-0-2-0-------------------------|
|-----------------------2-----------------------|
|-----------------------------------------------|
|-----------------------------------------------|
|-----------------------------------------------|

|-0-2-3-5-3-2-3-2-0-2-0---0-2-3-5-3-2-3-2-0-2---|
|-----------------------3-----------------------|
|-----------------------------------------------|
|-----------------------------------------------|
|-----------------------------------------------|
|-----------------------------------------------|x2

|-0-2-3-5-3-2-3-2-0-2-0-------------------------|
|-----------------------3-----------------------|
|-----------------------------------------------|
|-----------------------------------------------|
|-----------------------------------------------|
|-----------------------------------------------|

|-5-7-8-10-8-7-8-7-5-7-5---5-7-8-10-8-7-8-7-5-7---|
|------------------------8------------------------|
|-------------------------------------------------|
|-------------------------------------------------|
|-------------------------------------------------|
|-------------------------------------------------|x2

|-5-7-8-10-8-7-8-7-5-7-5---5----------------------|
|------------------------8------------------------|
|-------------------------------------------------|
|-------------------------------------------------|
|-------------------------------------------------|
|-------------------------------------------------|

|-12-14-15-17-15-14-15-14-12-14-12----12-14-15-17-15----|
|----------------------------------15-------------------|
|-------------------------------------------------------|
|-------------------------------------------------------|
|-------------------------------------------------------|
|-------------------------------------------------------|

|--14-15-14-12-14-12----12--------------|
|--------------------15-----------------|
|---------------------------------------|
|---------------------------------------|play through twice
|---------------------------------------|
|---------------------------------------|

then step up final:
|-0-2-3-5-3-2-7-5-4-9-7-6-11-9-8-13-11-10-15-13-12--------|
|---------------------------------------------------------|
|---------------------------------------------------------|
|---------------------------------------------------------|
|---------------------------------------------------------|
|---------------------------------------------------------|

|-17-17-17-17-17-17-15-15-15-17-17-17-17-17-17-15-15-15---|
|---------------------------------------------------------|
|---------------------------------------------------------|
|---------------------------------------------------------|
|---------------------------------------------------------|
|---------------------------------------------------------|

|---------------------------------------------------------|
|---------------------------------------------------------|
|--9-/----------9-/---------9-/---------9-/---------------|
|--9-/-slide----9-/--slide--9-/-slide---9-/--slide--------|
|--7-/-down-----7-/--down---7-/-down----7-/--down---------|
|---------------------------------------------------------|

then step up final again:
|-0-2-3-5-3-2-7-5-4-9-7-6-11-9-8-13-11-10-15-13-12--------|
|---------------------------------------------------------|
|---------------------------------------------------------|
|---------------------------------------------------------|
|---------------------------------------------------------|
|---------------------------------------------------------|

|---------------------------------------------------------|
|---------------------------------------------------------|
|-----r---------------------------------------------------|
|--2--e----2-2-2-2----------------------------------------|
|--2--s----2-2-2-2----------------------------------------|
|--0--t----0-0-0-0----------------------------------------|

-end

thanx
bye
            
Hard to play? Try these video lessons and learn fast. | Correct




comments powered by Disqus
↑ Back to top | Tablatures and chords are parodies/interpretations of the original songs. You may use it for private study, scholarship, research or language learning purposes only