» » »

Billion Dollar Babies Tabs (ver.1)

Artists:  A B C D E F G H I J K L M N O P Q R S T U V W X Y Z # 

Billion Dollar Babies Tabs (ver.1)

Alice Cooper
Rating:
3/5 (13 votes)

Hard to play? Try these video lessons and learn fast.
                -------------------------------------------------------------------------------
-------------------------------------------------------------------------------

Tuning:Standard

I wanted to learn this song, but I didn't see any good tabs, so I tabbed it.

Intro
e|---------------------------------------------------------------------------|
B|----------------------------------0h1-0h1-0h1-0h1-3h4-3h4-4h7-4h7-4h7-4h7--|
G|-0h2-0h2-0h2-0h2-0h2-0h2-0h2-0h2-------------------------------------------|
D|---------------------------------------------------------------------------|
A|---------------------------------------------------------------------------|
E|---------------------------------------------------------------------------|


 Verse lead, played while there is no singing.(Play this part with a wah peddle)
e|---------------------------------------------------------------------------|
B|-5-5-----5-------5----------10-10-10\--5-5-5-------5-8-10\-----------------|
G|-----7-5-------7---7-5------10-10-10\--------7-5-7-------------------------|
D|----------------------------10-10-10\--------------------------------------|
A|---------------------------------------------------------------------------|
E|---------------------------------------------------------------------------|


Verse (It is also underneath the verse lead.)
e|-------------------------------------------------x-x-x-x-x-x---------------|
B|-----------------------------10h12-10\-----------x-x-x-x-x-x---------------|
G|-2-2-2-----2-----------------10h12-10\-----------x-x-x-x-x-x---------------|
D|-2-2-2-----2----------3-3-3--10h12-10\--5-7-5-3--x-x-x-x-x-x---------------|
A|-0-0-0-----0-2h3-2-0--3-3-3-------------5-7-5-3--x-x-x-x-x-x---------------|
E|-------3-0------------1-1-1-------------3-5-3-1--x-x-x-x-x-x---------------|

Chorus
e|---------------------------------------------------------------------------|
B|-----9---------9--------5---------5---------9----------9-------------------|
G|-----9---------9--------5---------5---------9----------9-------------------|
D|-----9---------9--------7---------7---------9----------9-------------------|
A|-----7---------7----0-0---0-0-0-0----0------7----------7-------------------|
E|-0-0---0-0-0-0---0----------------------0-0----0-0-0-0----0----------------|

chorus cont.
e|---------------------------------------------------------------------------|
B|-5-6-5---5---------------9---------9-------5---------5---------9--------9--|
G|-------7---7-5-7-5-4-----9---------9-------5---------5---------9--------9--|
D|-------------------------9---------9-------7---------7---------9--------9--|
A|-------------------------7---------7---0-0---0-0-0-0---0-------7--------7--|
E|---------------------0-0---0-0-0-0---0---------------------0-0---0-0-0-0--0|

chorus cont.
e|---------------------------------------------------------------------------|
B|--------10-11-13-----------------------------------------------------------|
G|-----10--------------------------------------------------------------------|
D|-3-10-------------------2-3-5----------------------------------------------|
A|-3----------------2-3-5----------------------------------------------------|
E|-1------------3-5----------------------------------------------------------|

Solo
e|---------------------------------------12b13----13-15-13-12----------------|
B|--------------------------13-15-15b17-----------------------15-13-12-12-13-|
G|-------------------12-14---------------------10----------------------------|
D|-------------12-14---------------------------------------------------------|
A|-------12-15---------------------------------------------------------------|
E|-12-15---------------------------------------------------------------------|

e|------12b14-12-------------------------------------------------------------|
B|12-------------13-15b17-15-13-12-------------------------------------------|
G|---12----------------------------14-12-12h14-------------------------------|
D|---------------------------------------------------------------------------|
A|---------------------------------------------------------------------------|
E|---------------------------------------------------------------------------|

Solo cont. A second guitar plays this while the first guitar plays the verse riff. e|--|
B|-----10---8-----------10-8-10-8h10-8-10-12-13-12p10-12-10-12-13-13p10-8-10-----------|
G|-7h9----9----9-7b9-9-----------------------------------------------------------------|
D|-------------------------------------------------------------------------------------|
A|-------------------------------------------------------------------------------------|
E|-------------------------------------------------------------------------------------|

e|------------------5-------8----8----8-10b12-15b17-15b17--------------------|
B|8---8-----------5----8h10--------10----------------------------------------|
G|--9---9p7-5-7b9-------------10---------------------------------------------|
D|---------------------------------------------------------------------------|
A|---------------------------------------------------------------------------|
E|---------------------------------------------------------------------------|

Chorus Fill Played after 2nd chorus
e|------13h16p13----13-16b18-16-13-------------------------------------------|
B|13-16----------16----------------16p13h16----------------------------------|
G|---------------------------------------------------------------------------|
D|---------------------------------------------------------------------------|
A|---------------------------------------------------------------------------|
E|---------------------------------------------------------------------------|

outro riff
e|---------------------------------------------------------------------------|
B|---------------------------------------------------------------------------|
G|-2-2-----2-----------------------------------------------------------------|
D|-2-2-----2----------3-3-3--------------2-3-5-------------------------------|
A|-0-0-----0-2h3-2-0--3-3-3-------2-3-5--------------------------------------|
E|-----3-0------------1-1-1--3-5---------------------------------------------|

e|---------------------------------------------------------------------------|
B|---------------------------------------------------------------------------|
G|-2-2-----2-----------------------------------1h2h3(really-fast)------------|
D|-2-2-----2----------3-3-3--------------1h3h4-------------------------------|
A|-0-0-----0-2h3-2-0--3-3-3--------1h3h4-------------------------------------|
E|-----3-0------------1-1-1--1h3h4-------------------------------------------|


Outro solo
e|---------------------8----8-10-10b11-10b11-10b11-10b11-10b11-10-8-10-8-----|
B|-8-5---------------8---10----------------------------------------------10--|
G|----7p5---5-5-7h9---------------------------------------------------------8|
D|--------7------------------------------------------------------------------|
A|---------------------------------------------------------------------------|
E|---------------------------------------------------------------------------|

e|----------------5--------5-------5-----------------------------------------|
B|--------------5-------5--------5-------------------------------------------|
G|-7-5-7-5-7b-9-----7b9------7b9-----7b9-5-----------------------------------|
D|------------------------------------------7-5-7-5---------------------5-7--|
A|---------------------------------------------------5-3-5---3----3-5-7-----5|
E|---------------------------------------------------------5----5------------|

e|-----------------8------8--------------------------------------------------|
B|-5-------------8---10-8---8-10-8-8h10-15-15b17-13----13-15-15b16-13-15-13--|
G|-----7---5-7-9------------------------------------14-----------------------|
D|---7---7-------------------------------------------------------------------|
B|---------------------------------------------------------------------------|
G|---------------------------------------------------------------------------|


e|-------------------------------15-------15-------15-----------15b17--------|
B|-15-13-15-15b16-13-15-13-15b17----15b17----15b17----15b17-13---------------|
G|---------------------------------------------------------------------------|
D|---------------------------------------------------------------------------|
A|---------------------------------------------------------------------------|
E|---------------------------------------------------------------------------|

e|15b17-15-12-15-15b17-15-12-15-15h17-17-17h19-19-19h20b21-20b21-20b21-20b21-|
B|---------------------------------------------------------------------------|
G|---------------------------------------------------------------------------|
D|---------------------------------------------------------------------------|
A|---------------------------------------------------------------------------|
E|---------------------------------------------------------------------------|

e|-20b22-17-20p17---17-------------------------------------------------------|
B|----------------20---17----------------------------------------------------|
G|------------------------19b21-19b21-19b21-17----17-------------------------|
D|---------------------------------------------19----------------------------|
A|---------------------------------------------------------------------------|
E|---------------------------------------------------------------------------|

It fades out playing this
e|---------------------------------------------------------------------------|
B|---------------------------------------------------------------------------|
G|---------------------------------------------------------------------------|
D|----3-----3-----3-----3----------------------------------------------------|
A|---------------------------------------------------------------------------|
E|-1-----1-----1-----1-------------------------------------------------------|


Song Order:
Intro 1x
Verse Lead 1x
Verse 2x
Chorus 1x
Intro 1x
Solo (with verse underneath)
Verse 2x
Chorus 1x
Chorus fill
Outro riff 2x
Outro solo (or you can play the outro riff)
Then fade out playing the last riff.

It took me a REALLY long time to do. Have fun and if you have any questions my E-mail is 
the top.  And sorry for making it so long, but its not that hard, just long.

| /  slide up
| \  slide down
| h  hammer-on
| p  pull-off
| ~  vibrato
| +  harmonic
| x  Mute note
===============================================================================
            
Hard to play? Try these video lessons and learn fast. | Correct




comments powered by Disqus
↑ Back to top | Tablatures and chords are parodies/interpretations of the original songs. You may use it for private study, scholarship, research or language learning purposes only