» » »

Between High School And The Old School Tabs (ver.2)

Artists:  A B C D E F G H I J K L M N O P Q R S T U V W X Y Z # 

Between High School And The Old School Tabs (ver.2)

Alice Cooper
Rating:
0/5 (0 votes)

Hard to play? Try these video lessons and learn fast.
                ---------------------------------------------------------------------------
-----
       Between High School and Old School the Alice Cooper
-------------------------------------------------------------------------------

Tuning: eB Bb Gb Db Ab Eb

intro (guitar 1 only):
e|-------------------------------------------------------------------------|
B|-------------------------------------------------------------------------|
G|-9---9---9---13---14---14---14---6---7---7---7---14---12---12---12---7---|
D|-7p0-7p0-7p0-11p0-12p0-12p0-12p0-4p0-5p0-5p0-5p0-12p0-10p0-10p0-10p0-5p0-|
A|-------------------------------------------------------------------------|
E|-------------------------------------------------------------------------|

Main riff:
e|----------------------------------|
B|----------------------------------|
G|----------------------------------|
D|----------------------------------|
A|-------4~5~5~5~--------5~3~3~3~---|
E|-5~5~5~--------2~3~3~3~--------3~-|
-|
e|-----------------------------------------|
B|-----------------------------------------|
G|-----------------------------------------|
D|-7-7-7-11-12-12-12-4-5-5-5-12-10-10-10-5-|
A|-7-7-7-11-12-12-12-4-5-5-5-12-10-10-10-5-|
E|-5-5-5-9--10-10-10-2-3-3-3-10-8--8--8--3-|

Verse (guitar 1 only):
e|----------------------------------|
B|----------------------------------|
G|----------------------------------|
D|----------------------------------|
A|-------4~5~5~5~--------5~3~3~3~---|
E|-5~5~5~--------2~3~3~3~--------3~-|

Pre-Chorus:
e|----------------------------------|
B|----------------------------------|
G|-10101010101010101212121212121212-|
D|-10101010101010101212121212121212-|
A|-8-8-8-8-8-8-8-8-1010101010101010-|
E|----------------------------------|
-|
e|------------------|
B|------------------|
G|------------------|
D|-3333333355555555-|
A|-3333333355555555-|
E|-1111111133333333-|

Chorus:
e|------------------------------------------|
B|------------------------------------------|
G|------------------------------------------|
D|-7777777710101010101010109999999988888888-|
A|-7777777710101010101010109999999988888888-|
E|-555555558-8-8-8-8-8-8-8-7777777766666666-|
-|
e|------------------------------------------|
B|------------------------------------------|
G|------------------------------------------|
D|-77777777777777777777777777777777---------|
A|-77777777777777777777777777777777---------|
E|-55555555555555555555555555555555---------|

e|--------------------------------------------|
B|--------------------------------------------|
G|-------------------------7777777------------|
D|-77777777101010101010101077777775-5-5101010-|
A|-77777777101010101010101055555555-5-5101010-|
E|-555555558-8-8-8-8-8-8-8--------3-3-3-8-8-8-|
-|
e|-------------------------------------|
B|-------------------------------------|
G|-------------------------------------|
D|-77777777777777777777777-5-5-5101010-|
A|-77777777777777777777777-5-5-5101010-|
E|-55555555555555555555555-3-3-3-8-8-8-|

Bridge:
e|--------------------------------------------------------------------------|
B|--------------------------------------------------------------------------|
G|---4-4---4---4---4-4---4-4---4-4---4---4---4-4---4-4--------4-4---4---4---|
D|---4-4---4---4---4-4---4-4---4-4---4---4---4-4---4-4--------4-4---4---4---|
A|---2-2-0-2-0-2-0-2-2-0-2-2---2-2-0-2-0-2-0-2-2-0-2-2--------2-2-0-2-0-2-0-|
E|--------------------------------------------------------------------------|
-|
e|--------------------------------------------------------------------------|
B|--------------------------------------------------------------------------|
G|---4-------------------------4---------------------9-9--9---4-------------|
D|---4-------------------------4---------------------9-9--9---4-------------|
A|-0h2-----------------------0h2---------------------7-7--7-0h2-------------|
E|--------------------------------------------------------------------------|

e|---------------------------------|
B|---------------------------------|
G|-4-4---7-2-4-4---4---4---4-9---2-|
D|-4-4---7-2-4-4---4---4---4-9---2-|
A|-2-2-0-5-0-2-2-0-2-0-2-0-2-7---0-|
E|---------------------------------|
-|
e|---------------------------------|
B|---------------------------------|
G|-----------4-4-------------9---2-|
D|-----------4-4-------------9---2-|
A|-----------2-2-------------7---0-|
E|---------------------------------|


chorus 2:
e|------------------------------------------|
B|-10------10--------------10------10-------|
G|-12^(14)-12^(14)---------12^(14)-12^(14)--|
D|------------------------------------------|
A|------------------------------------------|
E|------------------------------------------|
-|
e|------------------------------------------|
B|------------------------------------------|
G|------------------------------------------|
D|-7777777710101010101010109999999988888888-|
A|-7777777710101010101010109999999988888888-|
E|-555555558-8-8-8-8-8-8-8-7777777766666666-|

Order:
Intro x2
Main Riff x2
Verse x1
Main Riff x1
Verse x1
Main Riff x1
Pre-Chorus x1
Chorus x1
Main Riff x2
Verse x1
Main Riff x1
Verse x1
Main Riff x1
Pre-Chorus x1
Chorus x2
Bridge x1
Main Riff x1
Chorus x2
Main Riff x4


| /  slide up
| \  slide down
| h  hammer-on
| p  pull-off
| ~  vibrato
| +  harmonic
| x  Mute note
===============================================================================
            
Hard to play? Try these video lessons and learn fast. | Correct




comments powered by Disqus
↑ Back to top | Tablatures and chords are parodies/interpretations of the original songs. You may use it for private study, scholarship, research or language learning purposes only