» » »

How Can You Mend A Broken Heart Tabs (ver.1)

Artists:  A B C D E F G H I J K L M N O P Q R S T U V W X Y Z # 

How Can You Mend A Broken Heart Tabs (ver.1)

Al Green
Rating:
5/5 (2 votes)

Hard to play? Try these video lessons and learn fast.
                AL GREEN - HOW CAN YOU MEND A BROKEN HEART?

INTRO:

E(?)
----------------------------------------------------------|
---------4------------4h5p4----------4-----------4h5p4----|
-------4----4-------4-------4----------4-------4-------4--|
----6---------6---6-----------6---6------6---6------------|
--7-------------7---------------7----------7--------------|
----------------------------------------------------------|

F#m                   A           B            A
--------2---------------------------------------------------|
------2---2----------------2------------4------------2------|
----2-------2--(x4)------2---2--------4---4--------2---2----|
--4--------------------2-------2----4-------4----2-------2--|
---------------------0------------2------------0------------|
------------------------------------------------------------|

  B            A            Abm    Gbm     E
------------------------------------------------0------------0------|
--------4------------2------------------------0---0--------0---0----|
------4---4--------2---2--------4------2----1-------1----1-------1--|
----4-------4----2-------2----6------4----2------------2------------|
--2------------0------------6------4--------------------------------|
--------------------------------------------------------------------|


VERSE1:

E(?)
----------------------------------------------------------|
---------4------------4h5p4----------4-----------4h5p4----|
-------4----4-------4-------4----------4-------4-------4--|
----6---------6---6-----------6---6------6---6------------|
--7-------------7---------------7----------7--------------|
----------------------------------------------------------|

F#m                  E(?)
--------2-------------------------------------|
------2---2----------------4-----------4------|
----2-------2--(x2)------4---4-------4---4----|
--4--------------------6-------6---6-------6--|
---------------------7-----------7------------|
----------------------------------------------|

  Ab                  C#m   =20
-----------------------------------------|
----------------------------5------------|
---------5----------------6---6----------|
-------6---6----(x2)----6-------6--(x2)--|
-----6-------6--------4------------------|
--4--------------------------------------|

  F#                B
----------------------------------------------------|
----------------------------------------------------|
--------3-----------------8-----------8h9p8---------|
------4---4-------------9---9-------9-------9--(x2)-|
----4-------4-(x2)----9-------9---9-----------------|
--2-----------------7-----------7-------------------|


CHORUS: like the intro (x2)


BRIDGE:
 F#m  E
--2---0---------|
--2---0--0------|
--2---1----1----|
--4---2------2--|
--4---2---------|
--2---0---------|


VERSE2: like verse1


CHORUS: x5 (fades on 5th time)


END
            
Hard to play? Try these video lessons and learn fast. | Correct




comments powered by Disqus
↑ Back to top | Tablatures and chords are parodies/interpretations of the original songs. You may use it for private study, scholarship, research or language learning purposes only