» » »

Al Green, Love And Happiness Tabs (ver.1)

Artists:  A B C D E F G H I J K L M N O P Q R S T U V W X Y Z # 

Love And Happiness Tabs (ver.1)

Al Green Tabs
 Rating:
4.7/5 (13 votes)
Love And Happiness lessons Tabs too difficult? Try these video lessons and learn fast
                Performed By: Al Green

ive been looking for this song for a while and i couldnt find it
so i just figured it out myself....here you go

INTRO

0:00     0:05       0:14     0:17       0:22
|------4|-----4----|-7--4---|----------|-----------------|
|-----4-|-----4----|-9--4---|----------|----4-4-------4--|
|----4--|-----4----|-7--4---|---4-6p4--|---4---4---------|
|---6---|4/6--6----|----6---|--6-6---6-|--6-----6---6----|
|--6----|4/6--6----|----6---|-6--------|-6-------6-6-----|
|-4-----|2/4--4----|----4---|----------|----------4------|

5 KNOCKS

                      SINGING SECTION

0:32                   0:35          0:38      0:40
|----7-9-11----------|------------------------|------------------|
|-/9--------9--------|------------------------|------------------|
|-------------9-8--- |-7-7-6h7p6-4---7p6-4-6--|-----7-7-6h7p6-4--|
|--------------------|------------------------|------------------|
|--------------------|------------------------|------------------|
|--------------------|------------------------|------------------|

 0:42       0:45      0:47    0:52 do this riff as many times until  0:58
|----------|--------|--------|-4---4-4---4-4---4-4---------------|
|----------|----0---|----4---|-4---4-4---4-4---4-4---------------|
|TRUMPET---|---1-1--|---1-4--|-4---4-4---4-4---4-4---------------|
|-FILL-----|--1-----|--1-----|------6-----6-----6----------------|
|----------|--------|--------|-----------------------------------|
|----------|--------|--------|-----------------------------------|


AS A SECOND GUITAR IN THE BACKGROUD....IT VARY'S A BIT THROUGHOUT
THE SONG BUT IS BASICALLY THE SAME.

AS FOR TIMING GO WITH THE BEAT OF THE SONG FOR THIS PART

|-4-4--4---------------------------------------------------------|
|-4-4--4---------------------------------------------------------|
|-4-4--4-----6p4-------------------------------------------------|
|-----6----6----6--REPEAT----------------------------------------|
|----------------------------------------------------------------|
|----------------------------------------------------------------|

1:26    L  O  V  E  AND   H A  PP I NESS
|----------------------------------------------------------------|
|----------------------------------------------------------------|
|-9-8-7-THEN DO THE SAME RIFF AS IN 0:35-0:38--------------------|
|----------------------------------------------------------------|
|----------------------------------------------------------------|
|----------------------------------------------------------------|


TRUMPET FILL On GUITAR
1:32

|-------------------|--------------------------------------------|
|-------7-----------|-------7------------------------------------|
|-8-6-8---8-6-4-6-8-|-8-6-8---8-6-4-6-4--------------------------|
|-------------------|-------------------6-4-6---REPEAT-----------|
|-------------------|--------------------------------------------|
|-------------------|--------------------------------------------|

ALL THE FILLS AND DIFFERENT RIFFS IN THE SONG THAT U HEAR IN THE GUITAR
THAT I HAVENT WRITTEN THE TIME OUT FOR ARE UP ABOVE...THE FILLS I WROTE UP
ABOVE ARE REPEATED THROUGHOUT THE SONG

EXAMPLE OF THIS
IS AT   4:02 THE RIFF IS THE SAME AS I WROTE  IN 0:35

ENJOY!!!!

BY THEGRITTS
            
Submit corrections

comments powered by Disqus
↑ Back to top | Al Green Tabs for Love And Happiness. Lyrics for acoustic guitar and electric guitar. Tablatures and chords are parodies/interpretations of the original songs. You may use it for private study, scholarship, research or language learning purposes only