» » »

Midnight In Montgomery Tabs (ver.1)

Artists:  A B C D E F G H I J K L M N O P Q R S T U V W X Y Z # 

Midnight In Montgomery Tabs (ver.1)

Alan Jackson
Rating:
0/5 (0 votes)

Hard to play? Try these video lessons and learn fast.
                Alan Jackson - Midnight In Montgomery
Capo 1



Intro:
      Dm         Dm            C        C
|------0h1----------0h1----------0-------0---|
|----3-----3------3-----3------1-------1-----|
|---2-------2----2-------2----0-------0------|
|-0---0--------0---0-------------------------|
|----------------------------3--3---3--3-----|
|--------------------------------------------| 
      Dm         Dm            C        C
|------0h1----------0h1----------0-------0---|
|----3-----3------3-----3------1-------1-----|
|---2-------2----2-------2----0-------0------|
|-0---0--------0---0-------------------------|
|----------------------------3--3---3--3-----|
|--------------------------------------------|

Vers:
      Dm         Dm            C        C
|------0h1----------0h1----------0-------0----------|
|----3-----3------3-----3------1-------1------------|
|---2-------2----2-------2----0-------0-------------|
|-0---0--------0---0--------------------------------|
|----------------------------3--3---3--3------------|
|---------------------------------------------------|
Midnight in Montgomery, silver eagle, lonely road

       B         B            Dm           Dm           
|------1----------1-----------0h1----------0h1------|
|----1--1-------1--1--------3-----3------3-----3----|
|---3----3-----3----3------2-------2----2-------2---|
|------------------------0---0--------0---0---------|
|-1---1------1---1----------------------------------|
|---------------------------------------------------|
I was on my way to Mobile for a big New Year's Eve show

      Dm         Dm            C        C
|------0h1----------0h1----------0-------0----------|
|----3-----3------3-----3------1-------1------------|
|---2-------2----2-------2----0-------0-------------|
|-0---0--------0---0--------------------------------|
|----------------------------3--3---3--3------------|
|---------------------------------------------------|
I stopped for just a minute to see a friend outside of town

       B         B                      
|------1----------1-----------0------------0--------|
|----1--1-------1--1-------2----2-------2----2------|
|---3----3-----3----3-----2------2-----2------2-----|
|---------------------------------------------------|
|-1---1------1---1------0---0--------0---0----------|
|---------------------------------------------------|
Put my collar up, I found his name, and felt the wind die down

Vers: 
      Dm         Dm            C        C
|------0h1----------0h1----------0-------0----------|
|----3-----3------3-----3------1-------1------------|
|---2-------2----2-------2----0-------0-------------|
|-0---0--------0---0--------------------------------|
|----------------------------3--3---3--3------------|
|---------------------------------------------------|
Then a drunk man in a cowboy hat took me by surprise

       B         B            Dm           Dm           
|------1----------1-----------0h1----------0h1------|
|----1--1-------1--1--------3-----3------3-----3----|
|---3----3-----3----3------2-------2----2-------2---|
|------------------------0---0--------0---0---------|
|-1---1------1---1----------------------------------|
|---------------------------------------------------|
Wearing shiny boots, a Nudi suit and haunting haunted eyes

      Dm         Dm              C           C
|------0h1----------0h1-----------0-----------0-----|
|----3-----3------3-----3-------1---1-------1---1---|
|---2-------2----2-------2-----0-----0-----0-----0--|
|-0---0--------0---0--------------------------------|
|----------------------------3---3-------3---3------|
|---------------------------------------------------|
He said 'Friend it's good to see you, it's nice to know you care'

       B         B           A            A       A
|------1----------1-----------0------------0------0-|
|----1--1-------1--1-------2----2-------2----2----2-|
|---3----3-----3----3-----2------2-----2------2---2-|
|-------------------------------------------------2-|
|-1---1------1---1------0---0--------0---0--------0-|
|-------------------------------------------------0-|
Then the wind picked up and he was gone - Was he ever really there

Ref:
       C           C           Dm           Dm
|-------0-----------0-----------0h1----------0h1----|
|-----1---1-------1---1-------3-----3------3-----3--|
|----0-----0-----0-----0-----2-------2----2-------2-|
|--------------------------0---0--------0---0-------|
|--3---3-------3---3--------------------------------|
|---------------------------------------------------|
'Cause it's midnight in Montgomery

       C           C           Dm           Dm
|-------0-----------0-----------0h1----------0h1----|
|-----1---1-------1---1-------3-----3------3-----3--|
|----0-----0-----0-----0-----2-------2----2-------2-|
|--------------------------0---0--------0---0-------|
|--3---3-------3---3--------------------------------|
|---------------------------------------------------|
Just hear that whipporwill

       C           C           Dm           Dm
|-------0-----------0-----------0h1----------0h1----|
|-----1---1-------1---1-------3-----3------3-----3--|
|----0-----0-----0-----0-----2-------2----2-------2-|
|--------------------------0---0--------0---0-------|
|--3---3-------3---3--------------------------------|
|---------------------------------------------------|
See the stars light up the purple sky

       A            A            A            A
|-------0------------0------------0------------0----|
|----2----2-------2----2-------2----2-------2----2--|
|---2------2-----2------2-----2------2-----2------2-|
|---------------------------------------------------|
|-0---0--------0---0--------0---0--------0---0------|
|---------------------------------------------------|
Feel that lonesome chill

       C           C           Dm           Dm
|-------0-----------0-----------0h1----------0h1----|
|-----1---1-------1---1-------3-----3------3-----3--|
|----0-----0-----0-----0-----2-------2----2-------2-|
|--------------------------0---0--------0---0-------|
|--3---3-------3---3--------------------------------|
|---------------------------------------------------|
Cause when the wind is right, you'll hear his songs

      C          B           A        Dm
|--------0-----------1----------0-----1-------------|
|----1-----------1----------2---------3-------------|
|---0-----------2----------2----------2-------------|
|-------------------------------------0-------------|
|-3----3------1----1-----0----0---------------------|
|---------------------------------------------------|
Smell whiskey in the air - Midnight in Montgomery - He's always singing there

Intro:
      Dm         Dm            C        C
|------0h1----------0h1----------0-------0---|
|----3-----3------3-----3------1-------1-----|
|---2-------2----2-------2----0-------0------|
|-0---0--------0---0-------------------------|
|----------------------------3--3---3--3-----|
|--------------------------------------------|
      Dm         Dm            C        C
|------0h1----------0h1----------0-------0---|
|----3-----3------3-----3------1-------1-----|
|---2-------2----2-------2----0-------0------|
|-0---0--------0---0-------------------------|
|----------------------------3--3---3--3-----|
|--------------------------------------------|


Vers:
      Dm         Dm            C        C
|------0h1----------0h1----------0-------0----------|
|----3-----3------3-----3------1-------1------------|
|---2-------2----2-------2----0-------0-------------|
|-0---0--------0---0--------------------------------|
|----------------------------3--3---3--3------------|
|---------------------------------------------------|
Well, I climbed back on that eagle, took one last look around

       B         B            Dm           Dm           
|------1----------1-----------0h1----------0h1------|
|----1--1-------1--1--------3-----3------3-----3----|
|---3----3-----3----3------2-------2----2-------2---|
|------------------------0---0--------0---0---------|
|-1---1------1---1----------------------------------|
|---------------------------------------------------|
Through red tail lights a shadow moved slow across the ground

      Dm         Dm            C        C
|------0h1----------0h1----------0-------0----------|
|----3-----3------3-----3------1-------1------------|
|---2-------2----2-------2----0-------0-------------|
|-0---0--------0---0--------------------------------|
|----------------------------3--3---3--3------------|
|---------------------------------------------------|
And off somewhere a midnight train is slowly passing by

       B         B           A           A        A
|------1----------1-----------0------------0------0-|
|----1--1-------1--1-------2----2-------2----2----2-|
|---3----3-----3----3-----2------2-----2------2---2-|
|-------------------------------------------------2-|
|-1---1------1---1------0---0--------0---0--------0-|
|-------------------------------------------------0-|
I could hear that whistle moaning - I'm so lonesome I could cry

Ref:
       C           C           Dm           Dm
|-------0-----------0-----------0h1----------0h1----|
|-----1---1-------1---1-------3-----3------3-----3--|
|----0-----0-----0-----0-----2-------2----2-------2-|
|--------------------------0---0--------0---0-------|
|--3---3-------3---3--------------------------------|
|---------------------------------------------------|
'Cause it's midnight in Montgomery

       C           C           Dm           Dm
|-------0-----------0-----------0h1----------0h1----|
|-----1---1-------1---1-------3-----3------3-----3--|
|----0-----0-----0-----0-----2-------2----2-------2-|
|--------------------------0---0--------0---0-------|
|--3---3-------3---3--------------------------------|
|---------------------------------------------------|
Just hear that whipporwill

       C           C           Dm           Dm
|-------0-----------0-----------0h1----------0h1----|
|-----1---1-------1---1-------3-----3------3-----3--|
|----0-----0-----0-----0-----2-------2----2-------2-|
|--------------------------0---0--------0---0-------|
|--3---3-------3---3--------------------------------|
|---------------------------------------------------|
See the stars light up the purple sky

       A            A            A            A
|-------0------------0------------0------------0----|
|----2----2-------2----2-------2----2-------2----2--|
|---2------2-----2------2-----2------2-----2------2-|
|---------------------------------------------------|
|-0---0--------0---0--------0---0--------0---0------|
|---------------------------------------------------|
Feel that lonesome chill

       C           C           Dm           Dm
|-------0-----------0-----------0h1----------0h1----|
|-----1---1-------1---1-------3-----3------3-----3--|
|----0-----0-----0-----0-----2-------2----2-------2-|
|--------------------------0---0--------0---0-------|
|--3---3-------3---3--------------------------------|
|---------------------------------------------------|
Cause when the wind is right, you'll hear his songs

      C          B           A        Dm
|--------0-----------1----------0-----1-------------|
|----1-----------1----------2---------3-------------|
|---0-----------2----------2----------2-------------|
|-------------------------------------0-------------|
|-3----3------1----1-----0----0---------------------|
|---------------------------------------------------|
Smell whiskey in the air - Midnight in Montgomery - He's always singing there

Intro:
      Dm         Dm            C        C
|------0h1----------0h1----------0-------0---|
|----3-----3------3-----3------1-------1-----|
|---2-------2----2-------2----0-------0------|
|-0---0--------0---0-------------------------|
|----------------------------3--3---3--3-----|
|--------------------------------------------|
      Dm         Dm            C        C
|------0h1----------0h1----------0-------0---|
|----3-----3------3-----3------1-------1-----|
|---2-------2----2-------2----0-------0------|
|-0---0--------0---0-------------------------|
|----------------------------3--3---3--3-----|
|--------------------------------------------|
            
Hard to play? Try these video lessons and learn fast. | Correct




comments powered by Disqus
↑ Back to top | Tablatures and chords are parodies/interpretations of the original songs. You may use it for private study, scholarship, research or language learning purposes only