» » »

Chattahoochee Tabs (ver.2)

Artists:  A B C D E F G H I J K L M N O P Q R S T U V W X Y Z # 

Chattahoochee Tabs (ver.2)

Alan Jackson
Rating:
0/5 (0 votes)

Hard to play? Try these video lessons and learn fast.
                (Intro)
-------------------------------------------------------------------------------
                             Chatahoochee - Alan Jackson
-------------------------------------------------------------------------------

Tuning:EBGDAE
X3                               on 3rd       
e|-------------------------------------------------------------------------|
B|-------------------------------------------------------------------------|
G|-------------------------------------------------------------------------|
D|-------------------------------------------------------------------------|
A|-2--3-3--2--3-3--2--3-3--2--3-3-1P0----0---------------------------------|
E|-------------------------------------3---3-------------------------------|

e|-------------------------------------------------------------------------|
B|-------------------------------------------------------------------------|
G|-------------------------------------------------------------------------|
D|--------------------------------------5-7-5------------------------------|
A|-2--3-3--2--3-3--2--3-3--2--3-3--5/7---------2--3--2--3-3-3--0---5b(5)---|
E|---------------------------------------------------------------3---------|

e|-------------------------------------------------------------------------|
B|-------------------------------------------------------------------------|
G|----------------------------------------------5--------------------------|
D|--------------------------------------5--7------------7-------5-7------5-|
A|-2--3-3--2--3-3--2--3-3--2--3-3---5/7-------7------7-----7--------6/7----|
E|-------------------------------------------------------------------------|

e|-------------------------------------------------------------------------|
B|---------------------------5---------------------------------------------|
G|---------------------------5---------------------------------------------|
D|--------------------5-7-5------------------------------------------------|
A|--5B(5)---3---5/7--------------------------------------------------------|
E|-------------------------------------------------------------------------|
   
ITS MY FIRST TIME TABBING THIS SONG. EMAIL ME IF YOU HAVE ANY QUESTIONS.


************************************

| /   slide up
| \   slide down
| h   hammer-on
| p   pull-off
| ~   vibrato
| +   harmonic
| x   Mute note
| b   Bend
| pb  Pre-bend
| br  Bend release
| pbr Pre-bend release
| brb Bend release bend

************************************
            
Hard to play? Try these video lessons and learn fast. | Correct




comments powered by Disqus
↑ Back to top | Tablatures and chords are parodies/interpretations of the original songs. You may use it for private study, scholarship, research or language learning purposes only