» » »

A Woman's Love Tabs (ver.1)

Artists:  A B C D E F G H I J K L M N O P Q R S T U V W X Y Z # 

A Woman's Love Tabs (ver.1)

Alan Jackson
Rating:
0/5 (0 votes)

Hard to play? Try these video lessons and learn fast.
                (Intro)
Not sure about this solo.  Sounds really close though. Its my first time doing this.  But here it goes.

e---------------------------------------------------------------------------|
B---------------------------------------------------------------------------|
G----------------13~---13~----14-13----------13b14r13-----------------------|
D--------14--16-----------------------14-16--------------14~~~--------------|
A----16---------------------------------------------------------------------|
E---------------------------------------------------------------------------|

e----------------------------------------------------------------------------|
B----------------------------------------------------------------------------|
G----14-13---------13b14r13--------------------------------------------------|
D-----------14-16--------------14~~~-------------14-14~~~--------------------|
A-----------------------------------------14h16------------------------------|
E----------------------------------------------------------------------------|
            
Hard to play? Try these video lessons and learn fast. | Correct




comments powered by Disqus
↑ Back to top | Tablatures and chords are parodies/interpretations of the original songs. You may use it for private study, scholarship, research or language learning purposes only