>
 >
Silent Eyes 1

Silent Eyes 1 Guitar Tabs

Aiden - Silent Eyes 1 chords, tabs, tablatures, lyrics

Guitar lessons | Add/correct | Request | Top 50 tabs Artists:  A B C D E F G H I J K L M N O P Q R S T U V W X Y Z 0-9

Silent Eyes 1 Guitar Tabs – Aiden

CD, Sheet music, Poster

Do you like Silent Eyes 1? Share with your friends now
ChordsTabsTabs v2Tabs v3Ukulele
Silent Eyes - Aiden

i was looking for this tab and i couldent find one so i tabbed one out!! here it is
are a few mistakes only cause i cant hear the guitar in the backround and because the
song is in half a step donw tuning so i tried my hardest to make it standard..overall a 
song and a dam well good tab!!

Enjoy

Intro/verse1(with singing)
e|-------------------------------------------------------------------------|
B|-------------------------------------------------------------------------|
G|--4---4---4---4---4---4---4-----4---4---4---4---4-----------------------4|
D|--6---6---6---6---6---6---6-----6---6---6---6---6---4----4---4-----4----6|
A|6---6---6---6---8---8---8---8-8---6---6---6---6-----4----4---4-----4-6-6-|
E|--------------------------------------------------2---2---2-2---2-2------|

e|-------------------------------------------------------------------------|
B|-------------------------------------------------------------------------|
G|--4-----4---4----4----4----4-----4---4-----4---4----4--------------------|
D|--6-----6---6----6----6----6-----6---6-----6---6----6----4---4----4----4-|
A|6---6-6---6--8-8--8-8--8-8---8-8---6---6-6---6---6-6-----4---4----4----4-|
E|-------------------------------------------------------2---2---2-2--2-2--|

Prechorus (strum it i dont really have a spefic pattern)
e|------------------------------------------------------------------------|
B|------------------------------------------------------------------------|
G|4--4444--4--444---------------------------------------------------------|
D|4--4444--6--4442--22222222----------------------------------------------|
A|6--6666--6--6662--22222222----------------------------------------------|
E|---------------0--00000000----------------------------------------------|

Chorus (the pattern {as best as i can say} is down 4x up 2x then up down up down)use these chords
e|--------2-----------2----------------------------------|
B|--------4-----------2----------------------------------|
G|--------4-B---------3--FM------------------------------|
D|--------4-----------4----------------------------------|repeat the pattern
A|--------2-----------4----------------------------------| two times
E|--------------------2----------------------------------|

Post-chorus
e|-----------------------------------------------------------------------|
B|-----------------------------------------------------------------------|
G|---------------4--4--4----------------------------9--------------------|
D|2-222--4-444---6--6--6---1/7(let note play)---7-7-7--------------------|
A|2-222--4-444--6--6--6----3/9-----then---------9-9----------------------|
E|0-000--2-222-----------------------------------------------------------|

Verse2(with singing)
e|-------------------------------------------------------------------------|
B|-------------------------------------------------------------------------|
G|--4---4---4---4---4---4---4-----4---4---4---4---4-----------------------4|
D|--6---6---6---6---6---6---6-----6---6---6---6---6---4----4---4-----4----6|
A|6---6---6---6---8---8---8---8-8---6---6---6---6-----4----4---4-----4-6-6-|
E|--------------------------------------------------2---2---2-2---2-2------|

e|-------------------------------------------------------------------------|
B|-------------------------------------------------------------------------|
G|--4-----4---4----4----4----4-----4---4-----4---4----4--------------------|
D|--6-----6---6----6----6----6-----6---6-----6---6----6----4---4----4----4-|
A|6---6-6---6--8-8--8-8--8-8---8-8---6---6-6---6---6-6-----4---4----4----4-|
E|-------------------------------------------------------2---2---2-2--2-2--|

Prechorus
e|------------------------------------------------------------------------|
B|------------------------------------------------------------------------|
G|4--4444--4--444---------------------------------------------------------|
D|4--4444--6--4442--22222222----------------------------------------------|
A|6--6666--6--6662--22222222----------------------------------------------|
E|---------------0--00000000----------------------------------------------|

Chorus
e|--------2-----------2----------------------------------|
B|--------4-----------2----------------------------------|
G|--------4-B---------3--FM------------------------------|
D|--------4-----------4----------------------------------|repeat the pattern
A|--------2-----------4----------------------------------| two times
E|--------------------2----------------------------------|

Post-chorus
e|-------------------------------------------------------------------------|
B|-------------------------------------------------------------------------|
G|---------------4--4--4----------------------------9----------------------|
D|2-222--4-444---6--6--6---1/7(let note play)---7-7-7----------------------|
A|2-222--4-444--6--6--6----3/9-----then---------9-9------------------------|
E|0-000--2-222-------------------------------------------------------------|

Bridge (i dont know what exactly he does here)this i what i do
e|--------------------------------|--------|-------------------|there are the
B|--------------------------------|--------|-------------------|right notes
G|--4---4----4---4-444--4--4-4444-|-------9|---4---------------|just dont know
D|--4---4----6---6-666--4--4-4444-|-3/7-777|---4---------------|the exact
A|6---6----6---6---666-6--6--6666-|-1/9-99-|---6---------------|order
E|--------------------------------|--------|-----X8------------|do this
*4 times*                        for endings      ^^^^
                                   1 to 3     for the last time

Verse 3 Palm Mute the whole verse
e|-----------------------------------------------------------------|
B|-----------------------------------------------------------------|
G|4-------4--------------------------------------------------------|
D|4-------6------2------4------------------------------------------|
A|6-(8x)--6-(8X)-2------4------------------------------------------|
E|---------------0-(8x)-2-(8x)-------------------------------------|

Chorus
e|--------2-----------2----------------------------------|
B|--------4-----------2----------------------------------|
G|--------4-B---------3--FM------------------------------|
D|--------4-----------4----------------------------------|repeat the pattern
A|--------2-----------4----------------------------------| four times
E|--------------------2----------------------------------|

ending
e|------------------------------------------------------|
B|------------------------------------------------------|
G|------------------------------------------------------|
D|22-222--444-444---------------------------------------|
A|22-222--444-444---------------------------------------|
E|00-000--222-222---------------------------------------|

Final strum a
                        BM

rate it please!!!





Comments


Popular Aiden tabs & chords
Last Sunrise 2 Bass Tabs
Unbreakable Bass Tabs
One Love Chords
Die Romantic 1 Tabs
Die, Die My Darling 1 Tabs
Hysteria 2 Tabs
Knife Blood Nightmare 3 Tabs
She Will Love You 2 Tabs
The Opening Departure Tabs
World By Storm Tabs


Song lyrics



↑ Back to top | Tablatures and chords are parodies/interpretations of the original songs. You may use it for private study, scholarship, research or language learning purposes only
© 2014 AZChords.com Contact us | Privacy policy | DMCA | Add/correct tabs | Request tabs | Top 50 tabs