» » »

Aiden, Die Romantic Tabs (ver.3)

Artists:  A B C D E F G H I J K L M N O P Q R S T U V W X Y Z # 

Die Romantic Tabs (ver.3)

Aiden Tabs
 Rating:
3.6/5 (7 votes)
Die Romantic lessons Tabs too difficult? Try these video lessons and learn fast
                h-hammer
p-pull off
*-palm mute
#-harmonic
;-hold


intro: guitar 1


----------------------------------------------------------|
----------------------------------------------------------|
---------8---8---6---6---5---5---6---6--------------------| x2
----------------------------------------------------------|
---------6---6---4---4---3---3---4---4--------------------|
----------------------------------------------------------|
          ### ### ### ### ### ### ###

intro: guitar 2


----------------------------------------------------------|
----------------------------------------------------------|
----------------------------------------------------------| x2
---------3---3---3---3---1---1---2---2--------------------|
---------3---3---3---3---1---1---2---2--------------------|
---------3---3---3---3---1---1---2---2--------------------|
          ### ### ### ### ### ### ###

verse: guitar 1


--------3-4-3-4-6-4-3---3-4--------------------------------|
----------------------4------------------------------------|
-----------------------------------------------------------| x8
-----------------------------------------------------------|
-----------------------------------------------------------|
-----------------------------------------------------------|


verse: guitar 2


------------------------------------------------------------|
------------------------------------------------------------|
----------6-8-----5-6-----5-6---5-6--6p5---6p5--------------| x2
--------6-------6------------------------6-----6------------|
------------------------6-----6-----------------------------|
------------------------------------------------------------|

chorus: guitar 1


------------------------------------------------------------|
----------------------9-8-9---------------9-8-9-------------|
---------888888888888-------8888888888888-------------------|
----------------------6-5-6---------------6-5-6-------------|
---------666666666666-------6666666666666-------------------|


chorus cont'd: guitar 1                           play both twice


-------------------------------------------------------------|
-----------------------9-8-9---------------------------------|
---------5555555555555-------6666666666666-555555-333333-----|
-----------------------6-5-6---------------------------------|
---------3333333333333-------4444444444444-333333-111111-----|
-------------------------------------------------------------|


chorus: guitar 2


---------------------------------------------------------------|
---------------------------------------------------------------|
----------------------------------------------------6666666666-| x1 1st time
---------6666666666666-11111111111111-3333333333333-6666666666-| x2 2nd time
---------6666666666666-11111111111111-3333333333333-4444444444-|
---------6666666666666-11111111111111-3333333333333------------|


before all the screaming: both guitars


---------------------------------------------------------------|
---------------------------------------------------------------|
---------4h5-5h6-5p3-3p1---------------------------------------| x9
---------------------------------------------------------------|
---------------------------------------------------------------|
---------------------------------------------------------------|

screaming-


---------------------------------------------------------------|
--------------------------------------------9-88----------9-88-|
---------------------------------------------------------------| x2
---------33333333-333-33333333-333-11111111------11111111------|
---------33333333-333-33333333-333-11111111-7-66-11111111-7-66-|
---------33333333-333-33333333-333-11111111------11111111------|
         ********     ********     ********      ********

verse

chorus


outro: both guitars

----------------------------------------------------------------|
----------------------------------------------------------------|
----------------------------------------------------------------|
----------333-3-333-3-333-3-333-3-------------------------------|
----------333-3-333-3-333-3-333-3-------------------------------|
----------333-3-333-3-333-3-333-3-------------------------------|
          *** ; *** ; *** ; *** ;

there u go its not perfect but its super close so ur welcome
            
Submit corrections

comments powered by Disqus
↑ Back to top | Aiden Tabs for Die Romantic. Lyrics for acoustic guitar and electric guitar. Tablatures and chords are parodies/interpretations of the original songs. You may use it for private study, scholarship, research or language learning purposes only