» » »

Agnostic Front, Politician Bass tabs (ver.2)

Artists:  A B C D E F G H I J K L M N O P Q R S T U V W X Y Z # 

Politician Bass tabs (ver.2)

Agnostic Front Tabs
 Rating:
4/5 (4 votes)
Politician lessons Tabs too difficult? Try these video lessons and learn fast
                Symbols:
r    ring note
    keep playing note
/    slide up
h    hammer-on
x    short rest (listen to the song)

Intro
           (4x)                                        3x
G-----------------------------|-----------------|---------------|---------
D-----2h5-3232----------------|-----------------|------0-0-5-42-|---------
A---------------3333-/5--323--|-5r-3r--5r-3>-1>-|---------------|--3r-1r--
E--0------------------------3-|-----------------|-00-0----------|---------

Verse  (2x)              (2x)
G-----------------|----------------|----
D-----------------|-2>----00----00-|----
A--2>----00----00-|----33----33----|----
E-----33----33----|----------------|-0r-

- pause (during the "Now the time is here..." part)
- play Verse
- pause
- play Verse
- pause

Outro
G--------------------
D--------------------
A--2>----00----00----
E-----33----33----0r-
            
Submit corrections

comments powered by Disqus
↑ Back to top | Agnostic Front Bass for Politician. Lyrics for acoustic guitar and electric guitar. Tablatures and chords are parodies/interpretations of the original songs. You may use it for private study, scholarship, research or language learning purposes only