» » »

Agnostic Front, Gotta Go Tabs (ver.2)

Artists:  A B C D E F G H I J K L M N O P Q R S T U V W X Y Z # 

Gotta Go Tabs (ver.2)

Agnostic Front Tabs
 Rating:
4/5 (4 votes)
Gotta Go lessons Tabs too difficult? Try these video lessons and learn fast
                h=hammer on
p=pull off
~=let ring

Intro (play four times) :
e|--------0------------------------------3----------------2h3p2----------|
B|-------------0------------------------------3--------------------3-----|
G|-------------------1-----------------------------4--7------------------|
D|-2----------------------------5---------------------7---------------2~-|
A|-2----------------------------5---------------------5---------------2~-|
E|-0----------------------------3-------------------------------------0~-|
     "True sounds of a revolution...."

Verse (wrong rythm, but its easy to figure out) :
e|-----------------------------------------------------------------------|
B|-----------------------------------------------------------------------|
G|---------------------------7-------------------------------------------|
D|-2-----------5-------------7---------------2---------------------------|
A|-2-----------5-------------5---------------2---------------------------|
E|-0-----------3-----------------------------0---------------------------|
     
Chorus:
e|-----------------------------------------------------------------------|
B|-----------------------------------------------------------------------|
G|-----------------------------------7-----------7-----------------------|
D|-2-----------2----5-----------5----7-----------7----2~-----------------|
A|-2-----------2----5-----------5----5-----------5----2~-----------------|
E|-0-----------0----3-----------3---------------------0~-----------------|
      "Say I'm Crazy......"

Play intro twice

this is the song, not the solo haha, sorry guys...and girls :P
            
Submit corrections

comments powered by Disqus
↑ Back to top | Agnostic Front Tabs for Gotta Go. Lyrics for acoustic guitar and electric guitar. Tablatures and chords are parodies/interpretations of the original songs. You may use it for private study, scholarship, research or language learning purposes only