» » »

A Global Threat, Stop The Violence Tabs (ver.2)

Artists:  A B C D E F G H I J K L M N O P Q R S T U V W X Y Z # 

Stop The Violence Tabs (ver.2)

A Global Threat Tabs
 Rating:
4/5 (4 votes)
Stop The Violence lessons Tabs too difficult? Try these video lessons and learn fast
                okay here we go listen to the song carefully!#@#@

intro
e-----------------|
B-----------------|
G--4----6-7-------|
D--4----6-7-5-----|
A--2----4-5-5-----|
E-----------3-----|


verse
e----------------------------------------------|
B----------------------------------------------|
G--44444444-6-7---------77777777-6-7-----------|
D--44444444-6-7-5555555-77777777-6-7-7777777---|
A--22222222-4-5-5555555-55555555-4-5-7777777---|
E---------------3333333--------------5555555---|


course
e---------------|
B---------------|
G--------7777---|
D--44-55-7777---|
A--44-55-5555---|
E--22-33--------|


solo
e---------------------------------------------|
B------------------------------88-88-88-6-----|
G--88-88-88-88-875h7h-55-7-55-7----------757--|
D---------------------------------------------|
A---------------------------------------------|
E---------------------------------------------|
(repeat the solo 2 times)


outtro
e-------------|
B-------------|
G--6-6-6-6----|
D--6-6-6-6----|
A--4-4-4-4----|
E-------------|


its easy have fun its not hard play it!
            
Submit corrections

comments powered by Disqus
↑ Back to top | A Global Threat Tabs for Stop The Violence. Lyrics for acoustic guitar and electric guitar. Tablatures and chords are parodies/interpretations of the original songs. You may use it for private study, scholarship, research or language learning purposes only