>
 >
Ska Sucks 1

Ska Sucks 1 Bass Tabs

Against All Authority - Ska Sucks 1 chords, tabs, tablatures, lyrics

Guitar lessons | Add/correct | Request | Top 50 tabs Artists:  A B C D E F G H I J K L M N O P Q R S T U V W X Y Z 0-9

Ska Sucks 1 Bass Tabs – Against All Authority

CD, Sheet music, Poster

Do you like Ska Sucks 1? Share with your friends now
Bass TabsBass Tabs v2ChordsTabsUkulele
The verse is just ska upbeats:

D D G A

then the guitar follows the bass and plays:
e|--------------------------------------|
B|--------------------------------------|
G|--------------------------------------|
D|--------4-----4-5-4-------------------|
A|--5-5-5---5-5-----------2--------4----|
E|--------------------3-3---3--5-5---5--|

that continues through the trumpet solo...

trumpet solo:
e|--------------------------------------------------------------------|
B|--------------------------------------------------------------------|
G|------------------------------4-6-4-----------4-6-4-----------------|
D|--4---7-5-4---------7---7-7-7-------7---7-7-7-------7---------------|
A|--------------5-5-5-------------------------------------------------|
E|--------------------------------------------------------------------|

e|--------------------------------------------------------------------|
B|-----------------5-5-5-------7--------------------------------------|
G|-----------------------7-7-7----------------------------------------|
D|--4-7-4-7-4---------------------------------------------------------|
A|------------7-5-----------------------------------------------------|
E|--------------------------------------------------------------------|

e|--------------------------------5-----------------------------------|
B|--5-5-5-------------------------------------------------------------|
G|--------7-7-7-6-6-6-7-4-6-4-----------------------------------------|
D|----------------------------7---------------------------------------|
A|--------------------------------------------------------------------|
E|--------------------------------------------------------------------|

then it goes to punk

D D G A

the little outro thingie is:
e|---------------------|
B|--10-10-10-9-7-------|
G|---------------7--7--|
D|------------------7--|
A|------------------5--|
E|---------------------|





Comments


Popular Against All Authority tabs & chords
Centerfold Bass Tabs
Sacco And Venzeti Bass Tabs
Stand Bass Tabs
Walking Revelution Bass Tabs
Livin' In Miami Tabs
Mr International Tabs
Ska Sucks Tabs
Stuck In A Rut Tabs
The Excuse Tabs
Toby Tabs


Song lyrics



↑ Back to top | Tablatures and chords are parodies/interpretations of the original songs. You may use it for private study, scholarship, research or language learning purposes only
© 2014 AZChords.com Contact us | Privacy policy | DMCA | Add/correct tabs | Request tabs | Top 50 tabs