>
 >
All Fall Down

All Fall Down Bass Tabs

Against All Authority - All Fall Down chords, tabs, tablatures, lyrics

Guitar lessons | Add/correct | Request | Top 50 tabs Artists:  A B C D E F G H I J K L M N O P Q R S T U V W X Y Z 0-9

All Fall Down Bass Tabs – Against All Authority

CD, Sheet music, Poster

Do you like All Fall Down? Share with your friends now
Bass TabsTabsTabs v2
Verses:
G:-------------------------------
D:------0--22-------32-----------
A:2222---------2222-----0--------
E:-------------------------------

Pre- Chorus: (x3)
G:-------------------------------     G:--------------
D:333-----------555--------------     D:333-----------
A:--------2-2-2--------0-0-0-----     A:--------2-2-2-
E:-------------------------------     E:--------------

G:-------------------------------
D:-------------------------------
A:----777--7--77--"7"\"2"/5------
E:s5-----------------------------
   " The politics......."

Chorus:                                                  
G:-------------------------------     G:------------------------------
D:-------------------3-3-3-2-2-0-     D:-------------------0-0-0-44-0-
A:2--2-2-2--2--------------------     A:2--2-2-2--2-------------------
E:-------------------------------     E:------------------------------
           
G:--------------------------------------------------------------------
D:--------------------------------------------------------------------
A:2--2-2-2--2------------0-0-0-2-2-5--5-5-5-5-5-5----2--2---0---------
E:---------------2-2-2--------------------------------------0---------

~repeat CHORUS, except this time do   G:------------------------------
         in the 2nd time around       D:------------------------------
                                      A:0--0--0--4-0------------------
                                      E:------------------------------

JUST REPEAT ALL OF THAT,   Then at the End: (x7) "the kind of solo part"
G:-------------------------------     G:------------------------------
D:-------0-2----------3-2--------     D:---------0-2------------3--2--
A:02222-------2222----5----------     A:02222---------2222------5--2--
E:-----------------02------------     E:---------------------02-------
:





Comments


Popular Against All Authority tabs & chords
Commiting The Truth Bass Tabs
Lifestyle Of Rebellion Bass Tabs
Sacco And Venzeti Bass Tabs
Stuck In A Rut Bass Tabs
The Excuse 1 Bass Tabs
Walking Revelution Bass Tabs
Walking Revolution Bass Tabs
Lifestyle Of Rebellion Chords
Daddy's Little Girl Tabs
Mr International Tabs


Song lyrics



↑ Back to top | Tablatures and chords are parodies/interpretations of the original songs. You may use it for private study, scholarship, research or language learning purposes only
© 2014 AZChords.com Contact us | Privacy policy | DMCA | Add/correct tabs | Request tabs | Top 50 tabs