» » »

All Fall Down Tabs (ver.1)

Artists:  A B C D E F G H I J K L M N O P Q R S T U V W X Y Z # 

All Fall Down Tabs (ver.1)

Against All Authority
Rating:
0/5 (0 votes)

Hard to play? Try these video lessons and learn fast.
                vers #1
---------------------------------------------------------------------|
---------------------------------------------------------------------|
-0000000-3--5--6--00000000-6--5--3-00000000-3--5--6----8-8-8-7--5--2-|x3
-0000000-3--5--6--00000000-6--5--3-00000000-3--5--6----8-8-8-7--5--2-|
-0000000-1--3--4--00000000-4--3--1-00000000-1--3--4----6-6-6-5--5--0-|
---------------------------------------------------------------------|
the air stings my eyes!!!the water burns my skin...

chorus #1
--x-x-6-x-x-6-x-x-5-x-x-5-x-x-6-x-x-6--2-4-56565656-|
--x-x-3-x-x-3-x-x-5-x-x-5-x-x-3-x-x-6--1-3----------|
--x-x-3-x-x-3-x-x-3-x-x-5-x-x-3-x-x-3---------------|
----------------------------------------------------|
----------------------------------------------------|
----------------------------------------------------|
all fall down   we all fall down...

vers #2
---------------------------------------------------------------------|
---------------------------------------------------------------------|
-0000000-3--5--6--00000000-6--5--3-00000000-3--5--6----8-8-8-7--5--2-|x3
-0000000-3--5--6--00000000-6--5--3-00000000-3--5--6----8-8-8-7--5--2-|
-0000000-1--3--4--00000000-4--3--1-00000000-1--3--4----6-6-6-5--5--0-|
---------------------------------------------------------------------|


chorus #2
--x-x-6-x-x-6-x-x-5-x-x-5-x-x-6-x-x-6--2-4-56565656-|
--x-x-3-x-x-3-x-x-5-x-x-5-x-x-3-x-x-6--1-3----------|
--x-x-3-x-x-3-x-x-3-x-x-5-x-x-3-x-x-3---------------|
----------------------------------------------------|
----------------------------------------------------|
----------------------------------------------------|

ending is only bass
            
Hard to play? Try these video lessons and learn fast. | Correct




comments powered by Disqus
↑ Back to top | Tablatures and chords are parodies/interpretations of the original songs. You may use it for private study, scholarship, research or language learning purposes only