>
 >
Equally Destructive

Equally Destructive Bass Tabs

After Forever - Equally Destructive chords, tabs, tablatures, lyrics

Guitar lessons | Add/correct | Request | Top 50 tabs Artists:  A B C D E F G H I J K L M N O P Q R S T U V W X Y Z 0-9

Equally Destructive Bass Tabs – After Forever

CD, Sheet music, Poster

Do you like Equally Destructive? Share with your friends now
Bass TabsTabs
                              Equally Destructive


                                                                   After Forever
Bass


   INTRO
     E  E  E  E  E  E  E  E     E  E  E  E  H           W
G||--------------------------|-----------------------|-------------------|
D||--------------------------|-----------------------|-------------------|
A||-----------------------1--|--L--0-----------------|-------------------|
D||--0--3--2--0--3--0--0-----|--------0--------------|-------------------|


  W                   E  E  E  E  E  E  E  E     E  E  E  E  H
-------------------|--------------------------|-----------------------|
-------------------|--------------------------|-----------------------|
-------------------|-----------------------1--|--L--0-----------------|
-------------------|--0--3--2--0--3--0--0-----|--------0--------------|


                                    ^
  W                   H.            Q          E  E  E  E  E  E  E  E
-------------------|----------------------||---------------------------|
-------------------|----------------------||*--------------------------|
-------------------|----------------------||*-----------------------1--|
-------------------|---------------/x\----||---0--3--2--0--3--0--0-----|


  E  E  Q    E  E  E  E     E  E  E  E  E  E  E  E
-------------------------|--------------------------|
-------------------------|--------------------------|
--L--0-------------------|--3--3--3--3--3--3--3--3--|
--------0----3--5--5--5--|--------------------------|


  E  E  E  E  E  E  E  E   3x  Q.     Q.     Q       E  Q.     Q    Q
---------------------------||---------------------|----------------------|
--------------------------*||---------------------|----------------------|
--------------------------*||---------------------|----------------------|
--2--2--2--2--2--2--2--2---||--5------5------5----|--L--5------5----5----|

                                               VERSE 1
  Q.     Q.     Q       E  Q.     Q    Q       E  E  E  E  E  E  Q
---------------------|----------------------|-------------------------|
---------------------|----------------------|-------------------------|
--0------0------0----|--L--0------0----0----|-------------------------|
---------------------|----------------------|--0--3--2--0--3--0-------|


  W                   E  E  E  E  E  E  Q       W
-------------------|-------------------------|-------------------|
-------------------|-------------------------|-------------------|
-------------------|-------------------------|-------------------|
-------------------|--0--3--2--0--3--0-------|-------------------|


  E  E  E  E  E  E  Q       W                   E  E  E  E  E  Q    E
-------------------------|-------------------|-------------------------|
-------------------------|-------------------|-------------------------|
-------------------------|-------------------|-------------------------|
--0--3--2--0--3--0-------|-------------------|--0--3--2--0--3--0----0--|


  E  E  E  E  E  E  E  E     E  E  E  E  E  E  Q       W
--------------------------|-------------------------|-------------------|
--------------------------|-------------------------|-------------------|
--------------------0--0--|-------------------------|-------------------|
--L--3--2--0--3--0--------|--0--3--2--0--3--0-------|-------------------|


  E  E  E  E  E  E  Q       W                   E  E  E  E  E  E  Q
-------------------------|-------------------|-------------------------|
-------------------------|-------------------|-------------------------|
-------------------------|-------------------|-------------------------|
--0--3--2--0--3--0-------|-------------------|--0--3--2--0--3--0-------|


  W                   E  E  E  E  E  Q    E     E  E  E  E  E  E  E  E
-------------------|-------------------------|--------------------------|
-------------------|-------------------------|--------------------------|
-------------------|-------------------------|--------------------0--0--|
-------------------|--0--3--2--0--3--0----0--|--L--3--2--0--3--0--------|


  E  E  H.              W                   W
---------------------|-------------------|-------------------|
---------------------|-------------------|-------------------|
--1--1---------------|-------------------|-------------------|
---------------------|-------------------|-------------------|


                         CHORUS               ^
  H.            Q          E  E  E  E  E  E  E  E     E  E  Q    E  E  E  E
----------------------||---------------------------|-------------------------|
----------------------||*--------------------------|-------------------------|
----------------------||*-----------------------1--|--L--0-------------------|
---------------/x\----||---0--3--2--0--3--0--0-----|--------0----3--5--5--5--|


  E  E  E  E  E  E  E  E     E  E  E  E  E  E  E  E   3x  Q.     Q.     Q
--------------------------|---------------------------||---------------------|
--------------------------|--------------------------*||---------------------|
--3--3--3--3--3--3--3--3--|--------------------------*||---------------------|
--------------------------|--2--2--2--2--2--2--2--2---||--5------5------5----|


  E  Q.     Q    Q       Q.     Q.     Q       E  Q.     Q    Q
----------------------|---------------------|----------------------|
----------------------|---------------------|----------------------|
----------------------|--0------0------0----|--L--0------0----0----|
--L--5------5----5----|---------------------|----------------------|

VERSE
                               PM PM    PM PM    PM
  E  E  E  E  E  E  Q       E  E  E  E  E  E  E  E     E  E  E  E  E  E  Q
-------------------------|--------------------------|-------------------------|
-------------------------|--------------------------|-------------------------|
-------------------------|--------------------------|-------------------------|
--0--3--2--0--3--0-------|-----0--0-----0--0-----0--|--0--3--2--0--3--0-------|


     PM PM    PM PM    PM                                 PM PM    PM PM    PM
  E  E  E  E  E  E  E  E     E  E  E  E  E  E  Q       E  E  E  E  E  E  E  E
--------------------------|-------------------------|--------------------------|
--------------------------|-------------------------|--------------------------|
--------------------------|-------------------------|--------------------------|
-----0--0-----0--0-----0--|--0--3--2--0--3--0-------|-----0--0-----0--0-----0--|


  E  E  E  E  E  Q    E     E  E  E  E  E  E  E  E     E  E  E  E  E  E  E  E
-------------------------|--------------------------|--------------------------|
-------------------------|--------------------------|--------------------------|
-------------------------|--------------------0--0--|--------------------------|
--0--3--2--0--3--0----0--|--L--3--2--0--3--0--------|--0--3--2--0--3--0--x--0--|


  E  E  E  E  E  E  E  E     E  E  E  E  E  E  E  E
--------------------------|--------------------------|
--------------------------|--------------------------|
--------------------------|--------------------------|
--x--0--x--0--x--0--x--0--|--0--3--2--0--3--0--x--0--|


  E  E  E  E  E  E  E  E     E  E  E  E  E  E  E  E
--------------------------|--------------------------|
--------------------------|--------------------------|
--------------------------|--------------------------|
--x--0--x--0--x--0--x--0--|--0--3--2--0--3--0--x--0--|


  E  E  E  E  E  E  E  E     E  E  E  E  E  Q    E     E  E  E  E  E  E  E  E
--------------------------|-------------------------|--------------------------|
--------------------------|-------------------------|--------------------------|
--------------------------|-------------------------|--------------------0--0--|
--x--0--x--0--x--0--x--0--|--0--3--2--0--3--0----0--|--L--3--2--0--3--0--------|

        VOCAL BREAK
  E  E  H.              W                   W
---------------------|-------------------|-------------------|
---------------------|-------------------|-------------------|
--1--1---------------|-------------------|-------------------|
---------------------|-------------------|-------------------|


  W                   W                   W                   W
-------------------|-------------------|-------------------|-------------------|
-------------------|-------------------|-------------------|-------------------|
-------------------|-------------------|-------------------|-------------------|
-------------------|-------------------|-------------------|-------------------|

                     BRIDGE
  W                   E  E  E  E  E  Q    E     E  E  E  E  E  E  E  E
-------------------|-------------------------|--------------------------|
-------------------|-------------------------|--------------------------|
-------------------|-------------------------|--------------------------|
-------------------|--0--3--2--0--3--0----0--|--L--3--2--0--3--0--1--1--|


  E  E  E  E  E  Q    E     E  E  E  E  E  E  E  E     E  E  E  E  E  Q    E
-------------------------|--------------------------|-------------------------|
-------------------------|--------------------------|-------------------------|
-------------------------|--------------------------|-------------------------|
--0--3--2--0--3--0----0--|--L--3--2--0--1--1--0--0--|--0--3--2--0--3--0----0--|


  E  E  E  E  E  E  E  E     E  E  E  E  E  Q    E     E  E  E  E  E  E  E  E
--------------------------|-------------------------|--------------------------|
--------------------------|-------------------------|--------------------------|
--------------------------|-------------------------|--------------------------|
--L--3--2--0--3--0--1--1--|--0--3--2--0--3--0----0--|--L--3--2--0--1--1--0--0--|

SOLO
  Q    E  Q    E  Q       Q    E  Q    E  Q       Q    E  Q    E  Q
-----------------------|-----------------------|-----------------------|
-----------------------|-----------------------|-----------------------|
-----------------------|-----------------------|--3----3--3----3--3----|
--0----0--0----0--0----|--0----0--0----0--0----|-----------------------|


  Q    E  Q    E  Q       Q    E  Q    E  Q       Q    E  Q    E  Q
-----------------------|-----------------------|-----------------------|
-----------------------|-----------------------|-----------------------|
--1----1--1----1--1----|-----------------------|-----------------------|
-----------------------|--0----0--0----0--0----|--0----0--0----0--0----|


  Q    E  Q    E  Q       Q    E  Q    E  Q       Q    E  Q    E  Q
-----------------------|-----------------------|-----------------------|
-----------------------|-----------------------|-----------------------|
--3----3--3----3--3----|--1----1--1----1--1----|-----------------------|
-----------------------|-----------------------|--0----0--0----0--0----|


  Q    E  Q    E  Q       Q    E  Q    E  Q       Q    E  Q    E  Q
-----------------------|-----------------------|-----------------------|
-----------------------|-----------------------|-----------------------|
-----------------------|--3----3--3----3--3----|--1----1--1----1--1----|
--0----0--0----0--0----|-----------------------|-----------------------|


  Q    E  Q    E  Q       Q    E  Q    E  Q       Q    E  Q    E  Q
-----------------------|-----------------------|-----------------------|
-----------------------|-----------------------|-----------------------|
-----------------------|-----------------------|--3----3--3----3--3----|
--0----0--0----0--0----|--0----0--0----0--0----|-----------------------|

                          CHORUS
  Q    E  Q    E  Q         E  E  E  E  E  E  E  E     E  E  Q    E  E  E  E
-----------------------||---------------------------|-------------------------|
-----------------------||*--------------------------|-------------------------|
--1----1--1----1--1----||*-----------------------1--|--L--0-------------------|
-----------------------||---0--3--2--0--3--0--0-----|--------0----3--5--5--5--|


  E  E  E  E  E  E  E  E     E  E  E  E  E  E  E  E   3x  Q.     Q.     Q
--------------------------|---------------------------||---------------------|
--------------------------|--------------------------*||---------------------|
--3--3--3--3--3--3--3--3--|--------------------------*||---------------------|
--------------------------|--2--2--2--2--2--2--2--2---||--5------5------5----|


  E  Q.     Q    Q       Q.     Q.     Q       E  Q.     Q    Q
----------------------|---------------------|----------------------|
----------------------|---------------------|----------------------|
----------------------|--0------0------0----|--L--0------0----0----|
--L--5------5----5----|---------------------|----------------------|


    E  E  E  E  E  E  E  E     E  E  Q    E  E  E  E
|---------------------------|-------------------------|
|*--------------------------|-------------------------|
|*-----------------------1--|--L--0-------------------|
|---0--3--2--0--3--0--0-----|--------0----3--5--5--5--|


  E  E  E  E  E  E  E  E     E  E  E  E  E  E  E  E   3x  Q.     Q.     Q
--------------------------|---------------------------||---------------------|
--------------------------|--------------------------*||---------------------|
--3--3--3--3--3--3--3--3--|--------------------------*||---------------------|
--------------------------|--2--2--2--2--2--2--2--2---||--5------5------5----|


  E  Q.     Q    Q       Q.     Q.     Q       E  Q.     Q    Q
----------------------|---------------------|----------------------|
----------------------|---------------------|----------------------|
----------------------|--0------0------0----|--L--0------0----0----|
--L--5------5----5----|---------------------|----------------------|

OUTRO
  E  E  E  E  E  Q    E     E  E  E  E  E  E  Q
-------------------------|-------------------------||
-------------------------|-------------------------||
-------------------------|-------------------------||
--0--3--2--0--3--0----0--|--L--3--2--0--3--0-------||


Duration Legend
---------------
W - whole
H - half
Q - quarter
E - 8th
S - 16th
T - 32nd
X - 64th
. - note dotted
|-n-|  - n-tuplets


Tablature Legend
----------------
L - tied note
x - dead note
g - grace note
(n) - ghost note
> - accentuded note
NH - natural harmonic
AH - artificial harmonic
TH - tapped harmonic
SH - semi harmonic
PH - pitch harmonic
h - hammer on
p - pull off
b - bend
br - bendRelease
pb - preBend
pbr - preBendRelease
brb - bendReleaseBend
\n/ - tremolo bar dip
\n - tremolo bar dive
-/n - tremolo bar Release up
/n\ - tremolo bar inverted dip
/n - tremolo bar return
-\n - tremolo bar Release down
S - shift slide
s - legato slide
/ -  slide into from below or out of upwards
\ -  slide into from above or out of downwards
~ - vibrato
W - wide vibrato
tr - trill
TP - tremolo picking
T - tapping
S - slap
P - pop
< - fade in
^ - brush up
v - brush down





Comments


Popular After Forever tabs & chords
Between Love And Fire Bass Tabs
Boundaries Are Open Bass Tabs
Emphasis Bass Tabs
Monolith Of Doubt 1 Bass Tabs
Empty Memories Chords
The Evil That Men Do Drum Tabs
Digital Deceit Intro Tabs
Inimical Chimera Tabs
Monolith Of Doubt Tabs
Empty Memories Ukulele


Song lyrics



↑ Back to top | Tablatures and chords are parodies/interpretations of the original songs. You may use it for private study, scholarship, research or language learning purposes only
© 2014 AZChords.com Contact us | Privacy policy | DMCA | Add/correct tabs | Request tabs | Top 50 tabs