>
 >
Equally Destructive

Equally Destructive Guitar Tabs

After Forever - Equally Destructive chords, tabs, tablatures, lyrics

Guitar lessons | Add/correct | Request | Top 50 tabs Artists:  A B C D E F G H I J K L M N O P Q R S T U V W X Y Z 0-9

Equally Destructive Guitar Tabs – After Forever

CD, Sheet music, Poster

Do you like Equally Destructive? Share with your friends now
Bass TabsTabs
                              Equally Destructive                               


                                                                   After Forever
Guitar 1


    INTRO
     E  E  E  E  E  E  E  E     E  E  E  E  H           W                 
E||--------------------------|-----------------------|-------------------|
B||--------------------------|-----------------------|-------------------|
G||--------------------------|-----------------------|-------------------|
D||--0--3--2--0--3--0--0--8--|--L--7--0--------------|-------------------|
A||--0--3--2--0--3--0--0--8--|--L--7--0--------------|-------------------|
D||--0--3--2--0--3--0--0--8--|--L--7--0--------------|-------------------|


  W                   E  E  E  E  E  E  E  E     E  E  E  E  H         
-------------------|--------------------------|-----------------------|
-------------------|--------------------------|-----------------------|
-------------------|--------------------------|-----------------------|
-------------------|--0--3--2--0--3--0--0--8--|--L--7--0--------------|
-------------------|--0--3--2--0--3--0--0--8--|--L--7--0--------------|
-------------------|--0--3--2--0--3--0--0--8--|--L--7--0--------------|


                                    ^                                   
  W                   H.            Q          E  E  E  E  E  E  E  E   
-------------------|----------------------||---------------------------|
-------------------|----------------------||---------------------------|
-------------------|----------------------||*--------------------------|
-------------------|---------------/x\----||*--0--3--2--0--3--0--0--8--|
-------------------|---------------/x\----||---0--3--2--0--3--0--0--8--|
-------------------|---------------/x\----||---0--3--2--0--3--0--0--8--|


  E  E  Q     E   E   E   E     Q    Q    E   E   E   E   
-----------------------------|---------------------------|
-----------------------------|---------------------------|
-------------10--12--12--12--|--9----9----9--10--10--10--|
--L--7--0-----x---x---x---x--|--x----x----x---x---x---x--|
--L--7--0-----8--10--10--10--|--7----7----7---8---8---8--|
--L--7--0--------------------|---------------------------|


  Q.     Q.      Q     3x   Q.     Q.     Q       E  E  H.            
-----------------------||----------------------|---------------------|
-----------------------||----------------------|---------------------|
--9------5S------9----*||--10------9------5----|--L--3--L------------|
--x------x-------x----*||----------------------|---------------------|
--7------3S------7-----||---8------7------3----|--L--1--L------------|
-----------------------||----------------------|---------------------|

                                           VERSE
   Q.     Q.     Q       W                   W                 
----------------------|-------------------|-------------------|
----------------------|-------------------|-------------------|
--10------9------6----|--L----------------|-------------------|
----------------------|-------------------|-------------------|
---8------7------4----|--L----------------|-------------------|
----------------------|-------------------|-------------------|


  W                   W                   W                   W                 
-------------------|-------------------|-------------------|-------------------|
-------------------|-------------------|-------------------|-------------------|
-------------------|-------------------|-------------------|-------------------|
-------------------|-------------------|-------------------|-------------------|
-------------------|-------------------|-------------------|-------------------|
-------------------|-------------------|-------------------|-------------------|


  W                   W                   H.           E   E    
-------------------|-------------------|-----------------------|
-------------------|-------------------|-----------------------|
-------------------|-------------------|-----------------------|
-------------------|-------------------|------------------/x\--|
-------------------|-------------------|------------------/x\--|
-------------------|-------------------|------------------/x\--|


  E  E  E  E  E  E  Q       W                   W                 
-------------------------|-------------------|-------------------|
-------------------------|-------------------|-------------------|
-------------------------|-------------------|-------------------|
--0--3--2--0--3--0-------|-------------------|-------------------|
--0--3--2--0--3--0-------|-------------------|-------------------|
--0--3--2--0--3--0-------|-------------------|-------------------|


  W                   E  E  E  E  E  E  Q       W                 
-------------------|-------------------------|-------------------|
-------------------|-------------------------|-------------------|
-------------------|-------------------------|-------------------|
-------------------|--0--3--2--0--3--0-------|-------------------|
-------------------|--0--3--2--0--3--0-------|-------------------|
-------------------|--0--3--2--0--3--0-------|-------------------|


  E  E  E  E  E  Q    E     E  E  E  E  E  E  E  E     E  E  H.            
-------------------------|--------------------------|---------------------|
-------------------------|--------------------------|---------------------|
-------------------------|--------------------2--2--|--3--3---------------|
--0--3--2--0--3--0----0--|--L--3--2--0--3--0--2--2--|--3--3---------------|
--0--3--2--0--3--0----0--|--L--3--2--0--3--0--0--0--|--1--1---------------|
--0--3--2--0--3--0----0--|--L--3--2--0--3--0--------|---------------------|


                                                        ^      
  W                   W                   H.            Q      
-------------------|-------------------|----------------------|
-------------------|-------------------|----------------------|
-------------------|-------------------|----------------------|
-------------------|-------------------|---------------/x\----|
-------------------|-------------------|---------------/x\----|
-------------------|-------------------|---------------/x\----|

 CHORUS
    E  E  E  E  E  E  E  E     E  E  Q     E   E   E   E   
|---------------------------|-----------------------------|
|---------------------------|-----------------------------|
|*--------------------------|-------------10--12--12--12--|
|*--0--3--2--0--3--0--0--8--|--L--7--0-----x---x---x---x--|
|---0--3--2--0--3--0--0--8--|--L--7--0-----8--10--10--10--|
|---0--3--2--0--3--0--0--8--|--L--7--0--------------------|


  Q    Q    E   E   E   E     Q.     Q.      Q     3x   Q.     Q.     Q     
---------------------------|-----------------------||----------------------|
---------------------------|-----------------------||----------------------|
--9----9----9--10--10--10--|--9------5S------9----*||--10------9------5----|
--x----x----x---x---x---x--|--x------x-------x----*||----------------------|
--7----7----7---8---8---8--|--7------3S------7-----||---8------7------3----|
---------------------------|-----------------------||----------------------|


  E  E  H.               Q.     Q.     Q       W                 
---------------------|----------------------|-------------------|
---------------------|----------------------|-------------------|
--L--3--L------------|--10------9------6----|--L----------------|
---------------------|----------------------|-------------------|
--L--1--L------------|---8------7------4----|--L----------------|
---------------------|----------------------|-------------------|

 VERSE
                               PM PM    PM PM    PM                            
  E  E  E  E  E  E  Q       E  E  E  E  E  E  E  E     E  E  E  E  E  E  Q     
-------------------------|--------------------------|-------------------------|
-------------------------|--------------------------|-------------------------|
-------------------------|--------------------------|-------------------------|
--0--3--2--0--3--0-------|--------------------------|--0--3--2--0--3--0-------|
--0--3--2--0--3--0-------|-----0--0-----0--0-----0--|--0--3--2--0--3--0-------|
--0--3--2--0--3--0-------|-----0--0-----0--0-----0--|--0--3--2--0--3--0-------|


     PM PM    PM PM    PM                                 PM PM    PM PM    PM  
  E  E  E  E  E  E  E  E     E  E  E  E  E  E  Q       E  E  E  E  E  E  E  E   
--------------------------|-------------------------|--------------------------|
--------------------------|-------------------------|--------------------------|
--------------------------|-------------------------|--------------------------|
--------------------------|--0--3--2--0--3--0-------|--------------------------|
-----0--0-----0--0-----0--|--0--3--2--0--3--0-------|-----0--0-----0--0-----0--|
-----0--0-----0--0-----0--|--0--3--2--0--3--0-------|-----0--0-----0--0-----0--|


  E  E  E  E  E  Q    E     E  E  E  E  E  E  E  E     E  E  E  E  E  E  E  E   
-------------------------|--------------------------|--------------------------|
-------------------------|--------------------------|--------------------------|
-------------------------|--------------------2--2--|--------------------------|
--0--3--2--0--3--0----0--|--L--3--2--0--3--0--2--2--|--0--3--2--0--3--0--------|
--0--3--2--0--3--0----0--|--L--3--2--0--3--0--0--0--|--0--3--2--0--3--0-----0--|
--0--3--2--0--3--0----0--|--L--3--2--0--3--0--------|--0--3--2--0--3--0-----0--|


  E  E  E  E  E  E  E  E     E  E  E  E  E  E  E  E   
--------------------------|--------------------------|
--------------------------|--------------------------|
--------------------------|--------------------------|
--------------------------|--0--3--2--0--3--0--------|
-----0-----0-----0-----0--|--0--3--2--0--3--0-----0--|
-----0-----0-----0-----0--|--0--3--2--0--3--0-----0--|


  E  E  E  E  E  E  E  E     E  E  E  E  E  E  E  E   
--------------------------|--------------------------|
--------------------------|--------------------------|
--------------------------|--------------------------|
--------------------------|--0--3--2--0--3--0--------|
-----0-----0-----0-----0--|--0--3--2--0--3--0-----0--|
-----0-----0-----0-----0--|--0--3--2--0--3--0-----0--|


  E  E  E  E  E  E  E  E     E  E  E  E  E  Q    E     E  E  E  E  E  E  E  E   
--------------------------|-------------------------|--------------------------|
--------------------------|-------------------------|--------------------------|
--------------------------|-------------------------|--------------------2--2--|
--------------------------|--0--3--2--0--3--0----0--|--L--3--2--0--3--0--2--2--|
-----0-----0-----0-----0--|--0--3--2--0--3--0----0--|--L--3--2--0--3--0--0--0--|
-----0-----0-----0-----0--|--0--3--2--0--3--0----0--|--L--3--2--0--3--0--------|

          VOCAL BREAK
  E  E  H.              W                   W                 
---------------------|-------------------|-------------------|
---------------------|-------------------|-------------------|
--3--3---------------|-------------------|-------------------|
--3--3---------------|-------------------|-------------------|
--1--1---------------|-------------------|-------------------|
---------------------|-------------------|-------------------|


  W                   W                   W                   W                 
-------------------|-------------------|-------------------|-------------------|
-------------------|-------------------|-------------------|-------------------|
-------------------|-------------------|-------------------|-------------------|
-------------------|-------------------|-------------------|-------------------|
-------------------|-------------------|-------------------|-------------------|
-------------------|-------------------|-------------------|-------------------|

                    BRIDGE
  W                   E  E  E  E  E  Q    E     E  E  E  E  E  E  E  E   
-------------------|-------------------------|--------------------------|
-------------------|-------------------------|--------------------------|
-------------------|-------------------------|--------------------8--8--|
-------------------|--0--3--2--0--3--0----0--|--L--3--2--0--3--0--x--x--|
-------------------|--0--3--2--0--3--0----0--|--L--3--2--0--3--0--6--6--|
-------------------|--0--3--2--0--3--0----0--|--L--3--2--0--3--0--------|


  E  E  E  E  E  Q    E     E  E  E  E  E  E  E  E     E  E  E  E  E  Q    E   
-------------------------|--------------------------|-------------------------|
-------------------------|--------------------------|-------------------------|
-------------------------|--------------8--8--7--7--|-------------------------|
--0--3--2--0--3--0----0--|--L--3--2--0--x--x--x--x--|--0--3--2--0--3--0----0--|
--0--3--2--0--3--0----0--|--L--3--2--0--6--6--5--5--|--0--3--2--0--3--0----0--|
--0--3--2--0--3--0----0--|--L--3--2--0--------------|--0--3--2--0--3--0----0--|


  E  E  E  E  E  E  E  E     E  E  E  E  E  Q    E     E  E  E  E  E  E  E  E   
--------------------------|-------------------------|--------------------------|
--------------------------|-------------------------|--------------------------|
--------------------8--8--|-------------------------|--------------8--8--7--7--|
--L--3--2--0--3--0--x--x--|--0--3--2--0--3--0----0--|--L--3--2--0--x--x--x--x--|
--L--3--2--0--3--0--6--6--|--0--3--2--0--3--0----0--|--L--3--2--0--6--6--5--5--|
--L--3--2--0--3--0--------|--0--3--2--0--3--0----0--|--L--3--2--0--------------|

SOLO
   Q.       Q.       Q         Q.       Q.       Q      
---------------------------|---------------------------|
--11~------10~-------------|--11~------10~-------------|
--------------------10~----|--------------------10~----|
---------------------------|---------------------------|
---------------------------|---------------------------|
---------------------------|---------------------------|


   Q      E    E   H            Q      E    E   H         
----------------------------|----------------------------|
----------------------------|----------------------------|
--12~----14~--14~--L--------|--15~----17~--17~--L--------|
----------------------------|----------------------------|
----------------------------|----------------------------|
----------------------------|----------------------------|


   Q.       Q.       Q         Q.       Q.       Q      
---------------------------|---------------------------|
--11~------10~-------------|--11~------10~-------------|
--------------------10~----|--------------------10~----|
---------------------------|---------------------------|
---------------------------|---------------------------|
---------------------------|---------------------------|


   Q.       Q.       Q         Q.       Q.      Q      
---------------------------|--------------------------|
--13~------11~------10~----|--------------------------|
---------------------------|--12~------10~------9~----|
---------------------------|--------------------------|
---------------------------|--------------------------|
---------------------------|--------------------------|


   Q.       Q.       Q         Q.       Q.       Q      
---------------------------|---------------------------|
--11~------10~-------------|--11~------10~-------------|
--------------------10~----|--------------------10~----|
---------------------------|---------------------------|
---------------------------|---------------------------|
---------------------------|---------------------------|


   Q      E    E   H            Q      E    E   H         
----------------------------|----------------------------|
----------------------------|----------------------------|
--12~----14~--14~--L--------|--15~----17~--17~--L--------|
----------------------------|----------------------------|
----------------------------|----------------------------|
----------------------------|----------------------------|


   E    Q.       E    Q.          E    Q.       E    Q.       
------------------------------|------------------------------|
------------------------------|------------------------------|
--17~--19~------15~--15~------|--17~--17~------14~--14~------|
------------------------------|------------------------------|
------------------------------|------------------------------|
------------------------------|------------------------------|


                                    W                  
   E    Q.       E    Q.            W                  
------------------------------|-----------------------|
------------------------------|-----------------------|
--15~--15~------12~--12~------|--<>10~----------------|
------------------------------|-----------------------|
------------------------------|-----------------------|
------------------------------|-----------------------|

CHORUS
    E  E  E  E  E  E  E  E     E  E  Q     E   E   E   E   
|---------------------------|-----------------------------|
|---------------------------|-----------------------------|
|*--------------------------|-------------10--12--12--12--|
|*--0--3--2--0--3--0--0--8--|--L--7--0-----x---x---x---x--|
|---0--3--2--0--3--0--0--8--|--L--7--0-----8--10--10--10--|
|---0--3--2--0--3--0--0--8--|--L--7--0--------------------|


  Q    Q    E   E   E   E     Q.     Q.      Q     3x   Q.     Q.     Q     
---------------------------|-----------------------||----------------------|
---------------------------|-----------------------||----------------------|
--9----9----9--10--10--10--|--9------5S------9----*||--10------9------5----|
--x----x----x---x---x---x--|--x------x-------x----*||----------------------|
--7----7----7---8---8---8--|--7------3S------7-----||---8------7------3----|
---------------------------|-----------------------||----------------------|


  E  E  H.               Q.     Q.     Q       W                 
---------------------|----------------------|-------------------|
---------------------|----------------------|-------------------|
--L--3--L------------|--10------9------6----|--L----------------|
---------------------|----------------------|-------------------|
--L--1--L------------|---8------7------4----|--L----------------|
---------------------|----------------------|-------------------|


    E  E  E  E  E  E  E  E     E  E  Q     E   E   E   E   
|---------------------------|-----------------------------|
|---------------------------|-----------------------------|
|*--------------------------|-------------10--12--12--12--|
|*--0--3--2--0--3--0--0--8--|--L--7--0-----x---x---x---x--|
|---0--3--2--0--3--0--0--8--|--L--7--0-----8--10--10--10--|
|---0--3--2--0--3--0--0--8--|--L--7--0--------------------|


  Q    Q    E   E   E   E     Q.     Q.      Q     3x   Q.     Q.     Q     
---------------------------|-----------------------||----------------------|
---------------------------|-----------------------||----------------------|
--9----9----9--10--10--10--|--9------5S------9----*||--10------9------5----|
--x----x----x---x---x---x--|--x------x-------x----*||----------------------|
--7----7----7---8---8---8--|--7------3S------7-----||---8------7------3----|
---------------------------|-----------------------||----------------------|


  E  E  H.               Q.     Q.     Q       W                 
---------------------|----------------------|-------------------|
---------------------|----------------------|-------------------|
--L--3--L------------|--10------9------6----|--L----------------|
---------------------|----------------------|-------------------|
--L--1--L------------|---8------7------4----|--L----------------|
---------------------|----------------------|-------------------|

OUTRO
  E  E  E  E  E  Q    E     E  E  E  E  E  E  Q      
-------------------------|-------------------------||
-------------------------|-------------------------||
-------------------------|-------------------------||
--0--3--2--0--3--0----0--|--L--3--2--0--3--0-------||
--0--3--2--0--3--0----0--|--L--3--2--0--3--0-------||
--0--3--2--0--3--0----0--|--L--3--2--0--3--0-------||


Guitar 2


   INTRO
     E  E  E  E  E  E  E  E     E  E  E  E  H           W                 
E||--------------------------|-----------------------|-------------------|
B||--------------------------|-----------------------|-------------------|
G||--------------------------|-----------------------|-------------------|
D||--0--3--2--0--3--0--0--8--|--L--7--0--------------|-------------------|
A||--0--3--2--0--3--0--0--8--|--L--7--0--------------|-------------------|
D||--0--3--2--0--3--0--0--8--|--L--7--0--------------|-------------------|


  W                   E  E  E  E  E  E  E  E     E  E  E  E  H         
-------------------|--------------------------|-----------------------|
-------------------|--------------------------|-----------------------|
-------------------|--------------------------|-----------------------|
-------------------|--0--3--2--0--3--0--0--8--|--L--7--0--------------|
-------------------|--0--3--2--0--3--0--0--8--|--L--7--0--------------|
-------------------|--0--3--2--0--3--0--0--8--|--L--7--0--------------|


                                    ^                                   
  W                   H.            Q          E  E  E  E  E  E  E  E   
-------------------|----------------------||---------------------------|
-------------------|----------------------||---------------------------|
-------------------|----------------------||*--------------------------|
-------------------|---------------/x\----||*--0--3--2--0--3--0--0--8--|
-------------------|---------------/x\----||---0--3--2--0--3--0--0--8--|
-------------------|---------------/x\----||---0--3--2--0--3--0--0--8--|


  E  E  Q    E  E  E  E     W                   W                 3x
-------------------------|-------------------|--------------------||
-------------------------|-------------------|--------------------||
-------------------------|--5----------------|-------------------*||
--L--7--0----3--5--5--5--|--5----------------|--2----------------*||
--L--7--0----3--5--5--5--|--3----------------|--2-----------------||
--L--7--0----3--5--5--5--|-------------------|--2-----------------||


  W                   W                   W                   W                 
-------------------|-------------------|-------------------|-------------------|
-------------------|-------------------|-------------------|-------------------|
-------------------|-------------------|-------------------|-------------------|
--5----------------|--L----------------|--7----------------|--L----------------|
--5----------------|--L----------------|--7----------------|--L----------------|
--5----------------|--L----------------|--7----------------|--L----------------|

VERSE
  W                   W                   W                   W                 
-------------------|-------------------|-------------------|-------------------|
-------------------|-------------------|-------------------|-------------------|
-------------------|-------------------|-------------------|-------------------|
-------------------|-------------------|-------------------|-------------------|
-------------------|-------------------|-------------------|-------------------|
-------------------|-------------------|-------------------|-------------------|


  W                   W                   W                 
-------------------|-------------------|-------------------|
-------------------|-------------------|-------------------|
-------------------|-------------------|-------------------|
-------------------|-------------------|-------------------|
-------------------|-------------------|-------------------|
-------------------|-------------------|-------------------|


  H.           E   E      E  E  E  E  E  E  Q       W                 
-----------------------|-------------------------|-------------------|
-----------------------|-------------------------|-------------------|
-----------------------|-------------------------|-------------------|
------------------/x\--|--0--3--2--0--3--0-------|-------------------|
------------------/x\--|--0--3--2--0--3--0-------|-------------------|
------------------/x\--|--0--3--2--0--3--0-------|-------------------|


  W                   W                   E  E  E  E  E  E  Q     
-------------------|-------------------|-------------------------|
-------------------|-------------------|-------------------------|
-------------------|-------------------|-------------------------|
-------------------|-------------------|--0--3--2--0--3--0-------|
-------------------|-------------------|--0--3--2--0--3--0-------|
-------------------|-------------------|--0--3--2--0--3--0-------|


  W                   E  E  E  E  E  Q    E     E  E  E  E  E  E  E  E   
-------------------|-------------------------|--------------------------|
-------------------|-------------------------|--------------------------|
-------------------|-------------------------|--------------------2--2--|
-------------------|--0--3--2--0--3--0----0--|--L--3--2--0--3--0--2--2--|
-------------------|--0--3--2--0--3--0----0--|--L--3--2--0--3--0--0--0--|
-------------------|--0--3--2--0--3--0----0--|--L--3--2--0--3--0--------|


  E  E  H.              W                   W                 
---------------------|-------------------|-------------------|
---------------------|-------------------|-------------------|
--3--3---------------|-------------------|-------------------|
--3--3---------------|-------------------|-------------------|
--1--1---------------|-------------------|-------------------|
---------------------|-------------------|-------------------|

                        CHORUS
                       ^                                                             
  H.            Q          E  E  E  E  E  E  E  E     E  E  Q    E  E  E  E   
----------------------||---------------------------|-------------------------|
----------------------||---------------------------|-------------------------|
----------------------||*--------------------------|-------------------------|
---------------/x\----||*--0--3--2--0--3--0--0--8--|--L--7--0----3--5--5--5--|
---------------/x\----||---0--3--2--0--3--0--0--8--|--L--7--0----3--5--5--5--|
---------------/x\----||---0--3--2--0--3--0--0--8--|--L--7--0----3--5--5--5--|


  W                   W                 3x  W                 
-------------------|--------------------||-------------------|
-------------------|--------------------||-------------------|
--5----------------|-------------------*||-------------------|
--5----------------|--2----------------*||--5----------------|
--3----------------|--2-----------------||--5----------------|
-------------------|--2-----------------||--5----------------|


  W                   W                   W                 
-------------------|-------------------|-------------------|
-------------------|-------------------|-------------------|
-------------------|-------------------|-------------------|
--L----------------|--7----------------|--L----------------|
--L----------------|--7----------------|--L----------------|
--L----------------|--7----------------|--L----------------|

VERSE
                               PM PM    PM PM    PM                            
  E  E  E  E  E  E  Q       E  E  E  E  E  E  E  E     E  E  E  E  E  E  Q     
-------------------------|--------------------------|-------------------------|
-------------------------|--------------------------|-------------------------|
-------------------------|--------------------------|-------------------------|
--0--3--2--0--3--0-------|--------------------------|--0--3--2--0--3--0-------|
--0--3--2--0--3--0-------|-----0--0-----0--0-----0--|--0--3--2--0--3--0-------|
--0--3--2--0--3--0-------|-----0--0-----0--0-----0--|--0--3--2--0--3--0-------|


     PM PM    PM PM    PM                                 PM PM    PM PM    PM  
  E  E  E  E  E  E  E  E     E  E  E  E  E  E  Q       E  E  E  E  E  E  E  E   
--------------------------|-------------------------|--------------------------|
--------------------------|-------------------------|--------------------------|
--------------------------|-------------------------|--------------------------|
--------------------------|--0--3--2--0--3--0-------|--------------------------|
-----0--0-----0--0-----0--|--0--3--2--0--3--0-------|-----0--0-----0--0-----0--|
-----0--0-----0--0-----0--|--0--3--2--0--3--0-------|-----0--0-----0--0-----0--|


  E  E  E  E  E  Q    E     E  E  E  E  E  E  E  E     E  E  E  E  E  E  E  E   
-------------------------|--------------------------|--------------------------|
-------------------------|--------------------------|--------------------------|
-------------------------|--------------------2--2--|--------------------------|
--0--3--2--0--3--0----0--|--L--3--2--0--3--0--2--2--|--0--3--2--0--3--0--------|
--0--3--2--0--3--0----0--|--L--3--2--0--3--0--0--0--|--0--3--2--0--3--0-----0--|
--0--3--2--0--3--0----0--|--L--3--2--0--3--0--------|--0--3--2--0--3--0-----0--|


  E  E  E  E  E  E  E  E     E  E  E  E  E  E  E  E   
--------------------------|--------------------------|
--------------------------|--------------------------|
--------------------------|--------------------------|
--------------------------|--0--3--2--0--3--0--------|
-----0-----0-----0-----0--|--0--3--2--0--3--0-----0--|
-----0-----0-----0-----0--|--0--3--2--0--3--0-----0--|


  E  E  E  E  E  E  E  E     E  E  E  E  E  E  E  E   
--------------------------|--------------------------|
--------------------------|--------------------------|
--------------------------|--------------------------|
--------------------------|--0--3--2--0--3--0--------|
-----0-----0-----0-----0--|--0--3--2--0--3--0-----0--|
-----0-----0-----0-----0--|--0--3--2--0--3--0-----0--|


  E  E  E  E  E  E  E  E     E  E  E  E  E  Q    E     E  E  E  E  E  E  E  E   
--------------------------|-------------------------|--------------------------|
--------------------------|-------------------------|--------------------------|
--------------------------|-------------------------|--------------------2--2--|
--------------------------|--0--3--2--0--3--0----0--|--L--3--2--0--3--0--2--2--|
-----0-----0-----0-----0--|--0--3--2--0--3--0----0--|--L--3--2--0--3--0--0--0--|
-----0-----0-----0-----0--|--0--3--2--0--3--0----0--|--L--3--2--0--3--0--------|

        VOCAL BREAK
  E  E  H.              W                   W                 
---------------------|-------------------|-------------------|
---------------------|-------------------|-------------------|
--3--3---------------|-------------------|-------------------|
--3--3---------------|-------------------|-------------------|
--1--1---------------|-------------------|-------------------|
---------------------|-------------------|-------------------|


  W                   W                   W                   W                 
-------------------|-------------------|-------------------|-------------------|
-------------------|-------------------|-------------------|-------------------|
-------------------|-------------------|-------------------|-------------------|
-------------------|-------------------|-------------------|-------------------|
-------------------|-------------------|-------------------|-------------------|
-------------------|-------------------|-------------------|-------------------|

                     BRIDGE
  W                   E  E  E  E  E  Q    E     E  E  E  E  E  E  E  E   
-------------------|-------------------------|--------------------------|
-------------------|-------------------------|--------------------------|
-------------------|-------------------------|--------------------8--8--|
-------------------|--0--3--2--0--3--0----0--|--L--3--2--0--3--0--x--x--|
-------------------|--0--3--2--0--3--0----0--|--L--3--2--0--3--0--6--6--|
-------------------|--0--3--2--0--3--0----0--|--L--3--2--0--3--0--------|


  E  E  E  E  E  Q    E     E  E  E  E  E  E  E  E     E  E  E  E  E  Q    E   
-------------------------|--------------------------|-------------------------|
-------------------------|--------------------------|-------------------------|
-------------------------|--------------8--8--7--7--|-------------------------|
--0--3--2--0--3--0----0--|--L--3--2--0--x--x--x--x--|--0--3--2--0--3--0----0--|
--0--3--2--0--3--0----0--|--L--3--2--0--6--6--5--5--|--0--3--2--0--3--0----0--|
--0--3--2--0--3--0----0--|--L--3--2--0--------------|--0--3--2--0--3--0----0--|


  E  E  E  E  E  E  E  E     E  E  E  E  E  Q    E     E  E  E  E  E  E  E  E   
--------------------------|-------------------------|--------------------------|
--------------------------|-------------------------|--------------------------|
--------------------8--8--|-------------------------|--------------8--8--7--7--|
--L--3--2--0--3--0--x--x--|--0--3--2--0--3--0----0--|--L--3--2--0--x--x--x--x--|
--L--3--2--0--3--0--6--6--|--0--3--2--0--3--0----0--|--L--3--2--0--6--6--5--5--|
--L--3--2--0--3--0--------|--0--3--2--0--3--0----0--|--L--3--2--0--------------|

SOLO
  W                   W                   W                   W                 
-------------------|-------------------|-------------------|-------------------|
-------------------|-------------------|-------------------|-------------------|
-------------------|-------------------|--5----------------|--3----------------|
--0----------------|--0----------------|--5----------------|--3----------------|
--0----------------|--0----------------|--3----------------|--1----------------|
--0----------------|--0----------------|-------------------|-------------------|


  W                   W                   W                   W                 
-------------------|-------------------|-------------------|-------------------|
-------------------|-------------------|-------------------|-------------------|
-------------------|-------------------|--5----------------|--3----------------|
--0----------------|--0----------------|--5----------------|--3----------------|
--0----------------|--0----------------|--3----------------|--1----------------|
--0----------------|--0----------------|-------------------|-------------------|


  W                   W                   W                   W                 
-------------------|-------------------|-------------------|-------------------|
-------------------|-------------------|-------------------|-------------------|
-------------------|-------------------|--5----------------|--3----------------|
--0----------------|--0----------------|--5----------------|--3----------------|
--0----------------|--0----------------|--3----------------|--1----------------|
--0----------------|--0----------------|-------------------|-------------------|


  W                   W                   W                   W                 
-------------------|-------------------|-------------------|-------------------|
-------------------|-------------------|-------------------|-------------------|
-------------------|-------------------|--5----------------|--3----------------|
--0----------------|--0----------------|--5----------------|--3----------------|
--0----------------|--0----------------|--3----------------|--1----------------|
--0----------------|--0----------------|-------------------|-------------------|

CHORUS
    E  E  E  E  E  E  E  E     E  E  Q    E  E  E  E     W                 
|---------------------------|-------------------------|-------------------|
|---------------------------|-------------------------|-------------------|
|*--------------------------|-------------------------|--5----------------|
|*--0--3--2--0--3--0--0--8--|--L--7--0----3--5--5--5--|--5----------------|
|---0--3--2--0--3--0--0--8--|--L--7--0----3--5--5--5--|--3----------------|
|---0--3--2--0--3--0--0--8--|--L--7--0----3--5--5--5--|-------------------|


  W                 3x  W                   W                 
--------------------||-------------------|-------------------|
--------------------||-------------------|-------------------|
-------------------*||-------------------|-------------------|
--2----------------*||--5----------------|--L----------------|
--2-----------------||--5----------------|--L----------------|
--2-----------------||--5----------------|--L----------------|


  W                   W                     E  E  E  E  E  E  E  E   
-------------------|-------------------||---------------------------|
-------------------|-------------------||---------------------------|
-------------------|-------------------||*--------------------------|
--7----------------|--L----------------||*--0--3--2--0--3--0--0--8--|
--7----------------|--L----------------||---0--3--2--0--3--0--0--8--|
--7----------------|--L----------------||---0--3--2--0--3--0--0--8--|


  E  E  Q    E  E  E  E     W                   W                 3x
-------------------------|-------------------|--------------------||
-------------------------|-------------------|--------------------||
-------------------------|--5----------------|-------------------*||
--L--7--0----3--5--5--5--|--5----------------|--2----------------*||
--L--7--0----3--5--5--5--|--3----------------|--2-----------------||
--L--7--0----3--5--5--5--|-------------------|--2-----------------||


  W                   W                   W                   W                 
-------------------|-------------------|-------------------|-------------------|
-------------------|-------------------|-------------------|-------------------|
-------------------|-------------------|-------------------|-------------------|
--5----------------|--L----------------|--7----------------|--L----------------|
--5----------------|--L----------------|--7----------------|--L----------------|
--5----------------|--L----------------|--7----------------|--L----------------|

OUTRO
  E  E  E  E  E  Q    E     E  E  E  E  E  E  Q      
-------------------------|-------------------------||
-------------------------|-------------------------||
-------------------------|-------------------------||
--0--3--2--0--3--0----0--|--L--3--2--0--3--0-------||
--0--3--2--0--3--0----0--|--L--3--2--0--3--0-------||
--0--3--2--0--3--0----0--|--L--3--2--0--3--0-------||




Duration Legend
---------------
W - whole
H - half
Q - quarter
E - 8th
S - 16th
T - 32nd
X - 64th
. - note dotted
|-n-|  - n-tuplets


Tablature Legend
----------------
L - tied note
x - dead note
g - grace note
(n) - ghost note
> - accentuded note
NH - natural harmonic
AH - artificial harmonic
TH - tapped harmonic
SH - semi harmonic
PH - pitch harmonic
h - hammer on
p - pull off
b - bend
br - bendRelease
pb - preBend
pbr - preBendRelease
brb - bendReleaseBend
\n/ - tremolo bar dip
\n - tremolo bar dive
-/n - tremolo bar Release up
/n\ - tremolo bar inverted dip
/n - tremolo bar return
-\n - tremolo bar Release down
S - shift slide
s - legato slide
/ -  slide into from below or out of upwards
\ -  slide into from above or out of downwards
~ - vibrato
W - wide vibrato
tr - trill
TP - tremolo picking
T - tapping
S - slap
P - pop
< - fade in
^ - brush up
v - brush down





Comments


Popular After Forever tabs & chords
Equally Destructive Bass Tabs
Monolith Of Doubt 1 Bass Tabs
Empty Memories Chords
Black Tomb Tabs
Come Tabs
Digital Deceit Intro Tabs
Follow In The Cry Tabs
Inimical Chimera Tabs
Monolith Of Doubt Tabs
Strong Tabs


Song lyrics



↑ Back to top | Tablatures and chords are parodies/interpretations of the original songs. You may use it for private study, scholarship, research or language learning purposes only
© 2014 AZChords.com Contact us | Privacy policy | DMCA | Add/correct tabs | Request tabs | Top 50 tabs