» » »

Afi, Two Of A Kind Bass tabs (ver.2)

Artists:  A B C D E F G H I J K L M N O P Q R S T U V W X Y Z # 

Two Of A Kind Bass tabs (ver.2)

Afi Tabs
Rating:
0/5 (0 votes)
Two Of A Kind  lessons Tabs too difficult? Try these video lessons and learn fast
                (2)
A Fire Inside
Two of a kind

Intro
G----12-14-17-14--------------
D-12--------------------------
A-----------------6666-5555---
E------------------------------

Verse
G--------------------------------------------
D--------------------------------------------
A-5555------5555-------5555-----------8888---
E------3333------55-66------3333-6666--------

Chours
G--------------------------------------------------------------------------
D--------------------------------------------------------------------------
A-55555555----------88888888-----------5555555----------88888888-6666-5555-
E----------33333333----------6666-8888---------33333333--------------------

After 2nd chours play the chours again

Ater last chours
G----------------------------------------
D----------------------------------------
A-55555555----------88888888-------------
E----------66666666----------3333-55-66--

End on G

Its a pretty easy song , this is the most accurate one rate!
            

comments powered by Disqus
↑ Back to top | Afi Bass for Two Of A Kind. Lyrics for acoustic guitar and electric guitar. Tablatures and chords are parodies/interpretations of the original songs. You may use it for private study, scholarship, research or language learning purposes only