>
 >
 >
Torch Song 1

Torch Song 1 Guitar Tabs

Afi - Torch Song 1 chords, tabs, tablatures, lyrics

Guitar lessons | Add/correct | Request | Top 50 tabs Artists:  A B C D E F G H I J K L M N O P Q R S T U V W X Y Z 0-9

Torch Song 1 Guitar Tabs – Afi

CD, Sheet music, Poster

Do you like Torch Song 1? Share with your friends now
Bass TabsTabsTabs v2Tabs v3Tabs v4
-------------------------------------------------------------------------------
                             Torch Song - AFI
-------------------------------------------------------------------------------


Tuning: Eb

Intro

e|--------------------------------12----------15-----------------------------|
B|--12----13----12----------12----12----13----13-----------------------------|
G|---x-----x-----x----13-----x-----x-----x-----x----19----20-----------------|
D|---x-----x-----x-----x-----x-----x-----x-----x-----x-----x-----------------|
A|--11----12----11----11----11----11----12----12----17----18-----------------|
E|---0-----0-----0-----0-----0-----0-----0-----0-----0-----0-----------------|

e|12----8-----10----10----8-----8-----8-----8-----8-----8----8-----8---------|
B|---10----10----10----10----10----10----12----12----12----10----10----10----|
G|---------------------------------------------------------------------------|
D|---------------------------------------------------------------------------|
A|---------------------------------------------------------------------------|
E|---------------------------------------------------------------------------|

e|12----8-----10----10----8-----8-----8-----8-----8-----8----8-----8---------|
B|---10----10----10----10----10----10----12----12----12----10----10----10----|
G|---------------------------------------------------------------------------|
D|---------------------------------------------------------------------------|
A|---------------------------------------------------------------------------|
E|---------------------------------------------------------------------------|

e|--------------------------------12----12-----------------------------------|
B|----------12h13--------------------------------12--------------------------|
G|--12h14------------14-14-14--10----10----12-12----12--14-------------------|
D|---------------------------------------------------------------------------|
A|---------------------------------------------------------------------------|
E|---------------------------------------------------------------------------|

e|---------------------------------------------------------------------------|
B|---13----13----13----13----13----13-----13-12----13-12---13-12-------------|
G|14----14----14----16----16----16-----12-------12---------------14----------|
D|-------------------------------------------------------14------------------|
A|---------------------------------------------------------------------------|
E|---------------------------------------------------------------------------|

Verse

e|--5---------------------------------5--------------------------------------|
B|--5---------------------------------5--------------------------------------|
G|--5------------------------------9--5-----------------------------------9--|
D|--7---------------------------10----7-------------------------------10-----|
A|--7------------------------8--------7----------------------------8---------|
E|--5---------------------------------5--------------------------------------|

e|--5------3------5------1------------5------3------5------------------------|
B|--5------3------7------1------------5------3------7------------------------|
G|--5------4------7------2------------5------4------7------------------------|
D|--7------5------7------3------------7------5------7------------------------|
A|--7------5------5------3------------7------5------5------------------------|
E|--5------3------5------1------------5------3------5------1~----------------|


e|--5---------------------------------5--------------------------------------|
B|--5---------------------------------5--------------------------------------|
G|--5------------------------------9--5--------------------------------9h10p9|
D|--7---------------------------10----7----------------------------10--------|
A|--7------------------------8--------7-------------------------8------------|
E|--5---------------------------------5--------------------------------------|

e|--5------3------5------1------------5------3------5------------------------|
B|--5------3------7------1------------5------3------7------------------------|
G|--5------4------7------2------------5------4------7------------------------|
D|--7------5------7------3------------7------5------7------------------------|
A|--7------5------5------3------------7------5------5------------------------|
E|--5------3------5------1------------5------3------5------1h3-3-3-1h3-3-3-3-|

1st Chorus

e|--5--------------3------------------1--------------------------------------|
B|--5------0-------3-----0------------1--------------------------------------|
G|--5--5-----5-----4--4-----4---------2--------------------------------------|
D|--7--7--------7--5--5--------5------3--------------------------------------|
A|--7--0-----------5--0---------------3--------------------------------------|
E|--5--------------3------------------1--------------------------------------|

e|--5--------------3------------------8--------------------7-----------------|
B|--5------0-------3-----0------------10-------------------9-----------------|
G|--5--5-----5-----4--4-----4---------10-------------------9-----------------|
D|--7--7--------7--5--5--------5------10-------------9--9--9-----------------|
A|--7--0-----------5--0---------------8--------7--7--------7-----------------|
E|--5--------------3------------------8--5--5--------------7-----------------|

Verse

e|--5---------------------------------5--------------------------------------|
B|--5---------------------------------5--------------------------------------|
G|--5------------------------------9--5--------------------------------9h10p9|
D|--7---------------------------10----7----------------------------10--------|
A|--7------------------------8--------7-------------------------8------------|
E|--5---------------------------------5--------------------------------------|

e|--5------3------5------1------------5------3------5------------------------|
B|--5------3------7------1------------5------3------7------------------------|
G|--5------4------7------2------------5------4------7------------------------|
D|--7------5------7------3------------7------5------7------------------------|
A|--7------5------5------3------------7------5------5------------------------|
E|--5------3------5------1------------5------3------5------1h3-3-3-1h3-3-3-3-|

2nd Chorus

e|--5--------------3------------------1--------------------------------------|
B|--5------0-------3-----0------------1--------------------------------------|
G|--5--5-----5-----4--4-----4---------2--------------------------------------|
D|--7--7--------7--5--5--------5------3--------------------------------------|
A|--7--0-----------5--0---------------3--------------------------------------|
E|--5--------------3------------------1--------------------------------------|

e|--5--------------3------------------8------------------9---------9---------|
B|--5------0-------3-----0------------10-----------------9---------9---------|
G|--5--5-----5-----4--4-----4---------10-----------------10--------10--------|
D|--7--7--------7--5--5--------5------10-----------------11--------12--------|
A|--7--0-----------5--0---------------8------------------11--------11--------|
E|--5--------------3------------------8------------------9---------9---------|

e|--5-------------10------------------1--------------------------------------|
B|--5-------------12------------------1--------------------------------------|
G|--5--5--7--9----12------------------2--------------------------------------|
D|--7--7--9--10---12------------------3--------------------------------------|
A|--7-------------10------------------3--------------------------------------|
E|--5-------------10------------------1--------------------------------------|

e|--5--------------3------------------8--------------------------------------|
B|--5------0-------3-----0------------10-------------------------------------|
G|--5--5-----5-----4--4-----4---------10-------------------------------------|
D|--7--7--------7--5--5--------5------10-------------9--9--------------------|
A|--7--0-----------5--0---------------8--------7--7--------------------------|
E|--5--------------3------------------8--5--5--------------------------------|

Bridge

e|---------------------------------------------------------------------------|
B|-------------------------------------------17------------------------------|
G|--14---14---16---14---14---14---16---16----19b21---------------------------|
D|--14---15---17---15---14---15---17---18------------------------------------|
A|--0----0----0----0----0----0----0----0-------------------------------------|
E|---------------------------------------------------------------------------|

e|--12---8/10---8/10---------------------------------------------------------|
B|--13--10/12---8/10---------------------------------------------------------|
G|--14--10/12---9/10----------------12--12--12----------------12--12--12-----|
D|--14--10/12--10/12--------10--10--------------------10--10-----------------|
A|--12---8/10--10/12--8--8----------------------7--7-------------------------|
E|--12---8/10---8/10---------------------------------------------------------|

e|--12---8/10---8/10---------------------------------------------------------|
B|--13--10/12---8/10---------------------------------------------------------|
G|--14--10/12---9/10----------------12--12--12----------------12--12--12-----|
D|--14--10/12--10/12--------10--10--------------------10--10-----------------|
A|--12---8/10--10/12--8--8----------------------7--7-------------------------|
E|--12---8/10---8/10---------------------------------------------------------|

e|---------------------------------------------------------------------------|
B|---------------------------------------------------------------------------|
G|---------------------------------------------------------------------------|
D|---------------------------------------------------------------------------|
A|--15-0-0-14-0-0-10-0-12-0-0-h14h15--15-0-0-14-0-0-10-0-12-0-0-h15h17-------|
E|---------------------------------------------------------------------------|


e|---------------------------------------------------------------------------|
B|---------------------------------------------------------------------------|
G|---------------------------------------------------------------------------|
D|---------------------------------------------------------------------------|
A|--15-0-0-14-0-0-10-0-12-0-0-h14h15--15-0-0-14-0-0-10-0-12-0-0-h15h17-------|
E|---------------------------------------------------------------------------|

e|---------------------------------------------------------------------------|
B|---------------------------------------------------------------------------|
G|---------------------------------------------------------------------------|
D|---------------------------------------------------------------------------|
A|--12-0-0-14-0-0-15-0-0-17-0-19-19-19-19-19-19------------------------------|
E|---------------------------------------------------------------------------|


3rd Chorus

e|--5--------------3------------------1--------------------------------------|
B|--5------0-------3-----0------------1--------------------------------------|
G|--5--5-----5-----4--4-----4---------2--------------------------------------|
D|--7--7--------7--5--5--------5------3--------------------------------------|
A|--7--0-----------5--0---------------3--------------------------------------|
E|--5--------------3------------------1--------------------------------------|

e|--5--------------3------------------8------------------9---------9---------|
B|--5------0-------3-----0------------10-----------------9---------9---------|
G|--5--5-----5-----4--4-----4---------10-----------------10--------10--------|
D|--7--7--------7--5--5--------5------10-----------------11--------12--------|
A|--7--0-----------5--0---------------8------------------11--------11--------|
E|--5--------------3------------------8------------------9---------9---------|

e|--5-------------10------------------1--------------------------------------|
B|--5-------------12------------------1--------------------------------------|
G|--5--5--7--9----12------------------2--------------------------------------|
D|--7--7--9--10---12------------------3--------------------------------------|
A|--7-------------10------------------3--------------------------------------|
E|--5-------------10------------------1--------------------------------------|

e|--5--------------3------------------8--------------------------------------|
B|--5------0-------3-----0------------10-------------------------------------|
G|--5--5-----5-----4--4-----4---------10-------------------------------------|
D|--7--7--------7--5--5--------5------10-------------9--9--------------------|
A|--7--0-----------5--0---------------8--------7--7--------------------------|
E|--5--------------3------------------8--5--5--------------------------------|

************************************

| /   slide up
| \   slide down
| h   hammer-on
| p   pull-off
| ~   vibrato
| +   harmonic
| x   Mute note
| b   Bend
| pb  Pre-bend
| br  Bend release
| pbr Pre-bend release
| brb Bend release bend

************************************





Comments


Popular Afi tabs & chords
A Single Second 3 Bass Tabs
Affliction Bass Tabs
File Thirteen 2 Bass Tabs
He Who Laughs Last Bass Tabs
Weathered Tomb Bass Tabs
Days Of The Phoenix Tabs
Ph Low Tabs
Prelude 1221 1 Tabs
Reiver's Music Tabs
Too Late For Gods 1 Tabs


Song lyrics



↑ Back to top | Tablatures and chords are parodies/interpretations of the original songs. You may use it for private study, scholarship, research or language learning purposes only
© 2014 AZChords.com Contact us | Privacy policy | DMCA | Add/correct tabs | Request tabs | Top 50 tabs