>
 >
 >
This Celluloid Dream 1

This Celluloid Dream 1 Guitar Tabs

Afi - This Celluloid Dream 1 chords, tabs, tablatures, lyrics

Guitar lessons | Add/correct | Request | Top 50 tabs Artists:  A B C D E F G H I J K L M N O P Q R S T U V W X Y Z 0-9

This Celluloid Dream 1 Guitar Tabs – Afi

CD, Sheet music, Poster

Do you like This Celluloid Dream 1? Share with your friends now
Bass TabsBass Tabs v2TabsTabs v2Tabs v3Tabs v4Tabs v5
A.F.I. - This Celluloid Dream
Off the album "Sing the Sorrow"

Tune down 1/2 step (Eb,Ab,Db,Gb,Bb,Eb)

I did this tab showing how I believe Jade plays the song on the album.  The guy likes barre chords a lot cuz it gives his 
sound much more body, and he almost always tries to use all 6 strings.  This tab is the first I've seen that does this song in 
Eb tuning and with barre chords, the way that it's supposed to be.  It took me a really long time to do, so I hope you like 
it.  Enjoy!

pm... - palm mute
~ - sustain
x - string mute
/ - slide

Intro:

Eb----------------------------------------------------------------------------
Bb----------------------------------------------------------------------------
Gb--7-7--x-x--7-7--6-6--7-7--x-x--7-7--6-6--7-7--x-x--7-7--6-6--7-7--6--6-6-6-
Db--9-9--x-x--9-9--7-7--5-5--x-x--5-5--7-7--9-9--x-x--9-9--7-7--5-5--7--7-7-7-
Ab----------------------------------------------------------------------------
Eb----------------------------------------------------------------------------

Eb--2-2--5-5--3-3--5-5------
Bb--3-3--7-5--3-3--7-5------
Gb--4-4--7-6--4-4--7-6------
Db--4-4--7-7--5-5--7-7------ x4
Ab--2-2--5-7--5-5--5-7------
Eb--2-2--5-5--3-3--5-5------

During last 2 times of above progression

Eb---------------------------------------------
Bb-------8877-------------------8877--10-87----
Gb--4444-xxxx---4444-796---4444-xxxx--x--xx-7--
Db--xxxx-5544---xxxx-xxx---xxxx-5544--7--54-x--
Ab--2222--------2222-574---2222-------------5--
Eb---------------------------------------------

Verse:

Eb-------------------5-5---------------------5-5---
Bb-------------------7-7---------------------7-7---
Gb-44444-------------7-7---44444-------------7-7---
Db-44444--7-7-55555--7-7---44444--7-7-55555--7-7--- x2
Ab-22222--7-7-55555--5-5---22222--7-7-55555--5-5---
Eb--------5-5-33333--5-5----------5-5-33333--5-5---
 pm.....  ... .....        .....  ... .....

2nd time through verse:

Eb------------------------------------------5-5-----
Bb------------------------------------------7-5-----
Gb--7p4-4444-7h4-7h4-444422-7h4-444444-9999-7-6-----
Db------------------------------------------7-7-----
Ab------------------------------------------5-7-----
Eb------------------------------------------5-5-----

Then this again:

Eb--2-2--5-5--3-3--5-5------
Bb--3-3--7-5--3-3--7-5------
Gb--4-4--7-6--4-4--7-6------
Db--4-4--7-7--5-5--7-7------ x2
Ab--2-2--5-7--5-5--5-7------
Eb--2-2--5-5--3-3--5-5------

Verse 2:

Eb-------------------5-5---------------------5-5---
Bb-------------------7-7---------------------7-7---
Gb-44444-------------7-7---44444-------------7-7---
Db-44444--7-7-55555--7-7---44444--7-7-55555--7-7--- x2
Ab-22222--7-7-55555--5-5---22222--7-7-55555--5-5---
Eb--------5-5-33333--5-5----------5-5-33333--5-5---
 pm.....  ... .....        .....  ... ..... 

2nd time through verse 2:

Eb------------------------------------------5-5-----
Bb------------------------------------------7-5-----
Gb--7p4-4444-7h4-7h4-444422-7h4-444444-9999-7-6-----
Db------------------------------------------7-7-----
Ab------------------------------------------5-7-----
Eb------------------------------------------5-5-----

Eb------2-2--
Bb------3-3--
Gb-4444-4-4--
Db-4444-4-4--
Ab-2222-2-2--
Eb------2-2--
 pm....

Eb-----------------------------------------------------------------------------------
Bb-------------------------------------------------------------------7777------------
Gb-------7777----------------7777-6666-----------7777--------------------------9999--
Db--9999------7777-9999-9999-----------9999-9999------7777-9999-9999------7777-------
Ab-----------------------------------------------------------------------------------
Eb-----------------------------------------------------------------------------------

Eb------2-0--------------
Bb------3-2--------------
Gb-4444-4-2--------------
Db-4444-4-2--------------
Ab-2222-2-0--------------
Eb------2----------------
pm.....

Chorus:

Eb--2-2-x2-2--3-3-x3-3--5-5-x5-5--00-00---
Bb--3-3-x3-3--3-3-x3-3--7-7-x7-7--00-22---
Gb--4-4-x4-4--4-4-x4-4--7-7-x7-7--00-22---
Db--4-4-x4-4--5-5-x5-5--7-7-x7-7--22-22--- x2
Ab--2-2-x2-4--5-5-x5-5--5-5-x5-5--22-00---
Eb--2-2-x2-2--3-3-x3-3--5-5-x5-5--00------

Then once again:

Eb--2-2--5-5--3-3--5-5------
Bb--3-3--7-5--3-3--7-5------
Gb--4-4--7-6--4-4--7-6------
Db--4-4--7-7--5-5--7-7------ x2
Ab--2-2--5-7--5-5--5-7------
Eb--2-2--5-5--3-3--5-5------

Verse 3:
Eb-------------------5-5---------------------5-5---
Bb-------------------7-7---------------------7-7---
Gb-44444-------------7-7---44444-------------7-7---
Db-44444--7-7-55555--7-7---44444--7-7-55555--7-7--- x2
Ab-22222--7-7-55555--5-5---22222--7-7-55555--5-5---
Eb--------5-5-33333--5-5----------5-5-33333--5-5---
 pm.....  ... .....        .....  ... ..... 

2nd time through verse 3:

Eb------------------------------------------5-5-----
Bb------------------------------------------7-5-----
Gb--7p4-4444-7h4-7h4-444422-7h4-444444-9999-7-6-----
Db------------------------------------------7-7-----
Ab------------------------------------------5-7-----
Eb------------------------------------------5-5-----

Eb------2-2--
Bb------3-3--
Gb-4444-4-4--
Db-4444-4-4--
Ab-2222-2-2--
Eb------2-2--
 pm....

Eb-----------------------------------------------------------------------------------
Bb-------------------------------------------------------------------7777------------
Gb-------7777----------------7777-6666-----------7777--------------------------9999--
Db--9999------7777-9999-9999-----------9999-9999------7777-9999-9999------7777-------
Ab-----------------------------------------------------------------------------------
Eb-----------------------------------------------------------------------------------

Eb------2-0--------------
Bb------3-2--------------
Gb-4444-4-2--------------
Db-4444-4-2--------------
Ab-2222-2-0--------------
Eb------2----------------
pm.....

Chorus 2:

Eb--2-2-x2-2--3-3-x3-3--5-5-x5-5--00-00---
Bb--3-3-x3-3--3-3-x3-3--7-7-x7-7--00-22---
Gb--4-4-x4-4--4-4-x4-4--7-7-x7-7--00-22---
Db--4-4-x4-4--5-5-x5-5--7-7-x7-7--22-22--- x2
Ab--2-2-x2-4--5-5-x5-5--5-5-x5-5--22-00---
Eb--2-2-x2-2--3-3-x3-3--5-5-x5-5--00------

Interlude:

Eb-------------------------
Bb----------3~--3h5p3p2----
Gb------4~-----------------
Db-------------------------
Ab--2~---------------------
Eb-------------------------

Eb----------------------------------
Bb--2---2h3---3----2---2h3----------
Gb----4-----4---4----2-----2---2----
Db---------------------------2------
Ab----------------------------------
Eb----------------------------------
 pm..............................

Eb-----------------------------
Bb--2---2h3---3----2---3---5~--
Gb----4-----4---4----2---2-----
Db-----------------------------
Ab-----------------------------
Eb-----------------------------
 pm.......................

Eb------------------------------------------------
Bb--2-2-3~-3----2-2-3~------2-2-3~-3----2-2-5~~---
Gb--4-4-4~---4--2-2-2~---2--4-4-4~---4--2-2-4~~---
Db---------------------2--------------------------
Ab------------------------------------------------
Eb------------------------------------------------

Eb--2-2--55555--3-3--5/2-2--
Bb--3-3--77777--3-3--7/3-3--
Gb--4-4--77777--4-4--7/4-4--
Db--4-4--77777--5-5--7/4-4-- x3
Ab--2-2--55555--5-5--5/2-2--
Eb--2-2--55555--3-3--5/2-2--

Eb--2-2--55555--3-3--77777---
Bb--3-3--77777--3-3--88888---
Gb--4-4--77777--4-4--99999---
Db--4-4--77777--5-5--99999---
Ab--2-2--55555--5-5--77777---
Eb--2-2--55555--3-3--77777---

Eb----------------------2-2----
Bb----------------------2-2----
Gb--4~---2~-------------2-2----
Db--4~---2~--4444444444-4-4----
Ab--2~---0~--4444444444-4-4----
Eb-----------2222222222-2-2----
           pm..........

Chorus 3:

Eb--2-2-x2-2--3-3-x3-3--5-5-x5-5--00-00---
Bb--3-3-x3-3--3-3-x3-3--7-7-x7-7--00-22---
Gb--4-4-x4-4--4-4-x4-4--7-7-x7-7--00-22---
Db--4-4-x4-4--5-5-x5-5--7-7-x7-7--22-22--- x4
Ab--2-2-x2-4--5-5-x5-5--5-5-x5-5--22-00---
Eb--2-2-x2-2--3-3-x3-3--5-5-x5-5--00------

During last 2 times of chorus:

Eb-----------------------------------------------------------------------------------
Bb-------8877-------------------------------------8877-------------------------------
Gb--4444-xxxx--77777777-77779977-66666666---4444--xxxx--77777777-77779977-66667777---
Db--xxxx-5544--xxxxxxxx-xxxxxxxx-xxxxxxxx---xxxx--5544--xxxxxxxx-xxxxxxxx-xxxxxxxx---
Ab--2222-------55555555-55557755-44444444---2222--------55555555-55557755-44445555---
Eb-----------------------------------------------------------------------------------

Outro

Eb--2-2-2~----
Bb--3-3-3~----
Gb--4-4-4~----
Db--4-4-4~----
Ab--2-2-2~----
Eb--2-2-2~----





Comments


Popular Afi tabs & chords
Hearts Frozen Soil Sod Once More By The Spring Of Rage Despair And Hopelessness Bass Tabs
The Nephilim Bass Tabs
Your Name Here 4 Bass Tabs
The Leaving Song Chords
Days Of The Pheonix Tabs
Exsanguination Tabs
High School Football Hero 1 Tabs
Leaving Song Part 2 2 Tabs
Reivers Music 1 Tabs
The Last Kiss Intro Tabs


Song lyrics



↑ Back to top | Tablatures and chords are parodies/interpretations of the original songs. You may use it for private study, scholarship, research or language learning purposes only
© 2014 AZChords.com Contact us | Privacy policy | DMCA | Add/correct tabs | Request tabs | Top 50 tabs