» » »

Afi, The Last Kiss Tabs (ver.3)

Artists:  A B C D E F G H I J K L M N O P Q R S T U V W X Y Z # 

The Last Kiss Tabs (ver.3)

Afi Tabs
 Rating:
4/5 (4 votes)
The Last Kiss lessons Tabs too difficult? Try these video lessons and learn fast
1
                e|--5--5--5--5--5--5--5--5--5--5--5--5--5--5--5--5--|------------------------|
B|--6--6--6--5--5--5--6--6--8--8--8--6--6--6--8--8--|------------------------|
G|--7--7--7--7--7--7--7--7--7--7--7--7--7--7--7--7--|--10------10------7--10-|
D|--0--0--0--0--0--0--0--0--0--0--0--0--0--0--0--0--|--10--10--10--10--7--10-|
A|--------------------------------------------------|---8--10---8--10--5---8-|
E|--------------------------------------------------|-------8-------8--------|


Verse:
G:-7----------3-5-:
D:-7-8-/-10-3-3-5-:
A:-5-8-/-10-3-1-3-:
E:---6-/-8--1-----:



G:-10-9-:
D:-10-7-:
A:-8--7-:

Chorus:
G:-7-5-3---5-:
D:-7-5-3-3-5-:
A:-5-3-1-3-3-:
E:-------1---:

G:-7-5-----:
D:-7-5-7-8-:
A:-5-3-7-8-:
E:-----5-6-:


G:-7-5-----10-9-7-5---10-:
D:-7-5-7-8-10-9-7-5-3-10-:
A:-5-3-7-8-8--7-5-3-3-8--:
E:-----5-6----------1----:

and heres the solo
solo:
e|---------------------------------------------------------------------------|
B|---------------------------------------------------------------------------|
G|---------------------------------------------------------------------------|
D|---------------------------------------------------------------------------|
A|--8-888-8-66-666-3-333-44-4-444-44-------------------------------------------|
E|---------------------------------------------------------------------------|
            
Submit corrections

comments powered by Disqus
↑ Back to top | Afi Tabs for The Last Kiss. Lyrics for acoustic guitar and electric guitar. 1 Tablatures and chords are parodies/interpretations of the original songs. You may use it for private study, scholarship, research or language learning purposes only