» » »

The Great Dissapointment Tabs (ver.2)

Artists:  A B C D E F G H I J K L M N O P Q R S T U V W X Y Z # 

The Great Dissapointment Tabs (ver.2)

Afi
Rating:
0/5 (0 votes)

Tabs too difficult? Try these video lessons and learn fast.
                Alright this song is played in standard tuning even though a lot of people seem to think 
otherwise. A lot of the other tabs for this song have been way off so here's my rendition.
This song is not easy so if you're a begginer don't bother.  I'm pretty sure this is 100% correct but if you have changes
tell me. Oh and I do not take requests so don't bother. Note the first part of this song
is just Jade beating the hell out of a C#m bar chord

h=hammer on
p=pull off
*=palm mute
/=slide


I'm not exactly sure what notes Jade is playing with the whole feedback intro just play 
around with the notes in the intro bellow and it should be close enough

Intro
---4---------4-------------4------5----5---------7-------7p5p4----4------4--
-----5---------5------------5------------5---------5----------------5------5
-6-----6--------------6------6-------6-----6---------6----------------6-----

Intro Ending A (Play this then go back to above intro)
----0-------------------4--------
-----4------4h5-----------5------
-6-----6----------6-------------6
---------------------------------
---------------------------------
---------------------------------

Intro Ending B (Play this after you repeat the first part of the intro)
----4-------4------5----------7-----
------5-------5------5----5-----5---
-6------6-------6------6-----------6
------------------------------------
------------------------------------
------------------------------------

Then Distortion Comes in and Play
----4-------4-------4---------5--------4h5----4-----7--------7----
------5-------5-------5---------5-----------5---5------5-5-----5--
--------6-------6---------6-------6------------------------------6
-4----------------------------------------------------------------

Verse 1
-----------------------------------------4----------------
-------------------------------------------5--------------
-4h6---------6-------6--6-----4h6------------6-----------4
----------------------------------------------------------
------4*-4*--4--4*---4--4-----------4-4----------4*--4*---
----------------------------------------------------------

----------------------------------5p4-----------5h7--5----------5--5
-4h6--------6---------6-6-6-------6-------------6----6----------6--6
------4*-4*-4---4*----4-4-4------------4*--4*-----------4*--4*------

Chorus
The strumming patern is weird so I'll just give the chords
--------------------------------------------
--------------------------------------------
-4---------2----------13/14--11-13---9/11--8
-2----2----4---11---------------------------
-0----2----4----9-----11/12---9/11---7/9---6
------0----2----7---------------------------

-------------------------
-------------------------
-9---9/11----8-----4--4/6
-------------------------
-7---7/9-----6-----2--2/4
-------------------------

Verse 2
Like the chorus the strumming patern is odd so here's the chords
-8---------------8---------------------------------8------------
-6---2----7---2--6---2----7---2---4/6--2---7---2---6---2---7---9
-4---2----7---2--4---2----7---2---2/4--2---7---2---4---2---7---9
-----0----5---0------0----5---0--------0---5---0-------0---5---7

---------------------
---------------------
-9---11-----13-----18
---------------------
-7----9-----11-----16
---------------------

Breakdown A
-4---5---7
-5---5---5
-6---6---6       basically just play those chords over and over
----------
----------
----------

Breakdown B
------------------------------------------
------------------------------------------
-8--6--9--8--8--6--9--9--8--6--9--8--8--11
------------------------------------------
-6--4--7--6--6--4--7--7--6--4--7--6--6---9
------------------------------------------

Breakdown C
This is the one part I'm not sure about but it's close
------------------                             -----------
------------------                             -----------
-----------------9                             -9--11----8
------------------  play a few times then play -----------
-----------------7                             -7---9----6
-2h3-2h5-2h3-0----                             -----------

After Bass Breakdown Play
-4-----4-----5----4---------4----5-----7------7
-----------------------------------------------
----6-----6-----6-----6--6-----6----6-----6----
-----------------------------------------------
-----------------------------------------------
-----------------------------------------------

---------------------
---------------------
-9---11-----13-----18
---------------------
-7----9-----11-----16
---------------------

Then Repeat Stuff From Above

Outro
----5-------4----
-----5--------5--
-6------6-------6
-----------------
-----------------
-----------------
            
Tabs too difficult? Try these video lessons and learn fast.


comments powered by Disqus
↑ Back to top | Tablatures and chords are parodies/interpretations of the original songs. You may use it for private study, scholarship, research or language learning purposes only