» » »

Afi, Despair Factor Bass tabs (ver.1)

Artists:  A B C D E F G H I J K L M N O P Q R S T U V W X Y Z # 

Despair Factor Bass tabs (ver.1)

Afi Tabs
 Rating:
4/5 (4 votes)
Despair Factor lessons Tabs too difficult? Try these video lessons and learn fast
1
                "DESPAIR FACTOR - AFI 

 

X1 - Intro 
G|-------------------------------------------------------------------------| 
D|------------------------------------------------------------------4-5-7--| 
A|--------------------------------------------------------------5----------| 
E|-0--3--5--0--3--5--3--3--5--6--3--0--3--5--0--3--5--3--3--5--------------| 

X1 - Verse part 1 
G|-----------------------------| 
D|-----------------------------| 
A|--------5>-2>---------5>-2>--| 
E|-0>-3>---------0>-3>---------| 

X1 - VErse Part 2 
G|------------------------------------------------------------------| 
D|--------------------4---------4--5--2--------------------4--5-----| 
A|----2-----2--3--5------5--2-------------2-------2--3--5--------2--| 
E|-0-----3------------------------------------3---------------------| 

X2 - Chorus 
G|------------------------------| 
D|----5--2--5----7--5--4--2--0--| 
A|-3----------5-----------------| 
E|------------------------------| 

X1 - Bridge (intro) 
G|-------------------------------------------------------------------------| 
D|------------------------------------------------------------------4-5-7--| 
A|--------------------------------------------------------------5----------| 
E|-0--3--5--0--3--5--3--3--5--6--3--0--3--5--0--3--5--3--3--5--------------| 

X1 - Verse 2 (same as verse 1 part 2) 
G|-------------------------------------------------------------------| 
D|--------------------4---------4--5--2--------------------4--5------| 
A|----2-----2--3--5------5--2-------------2-------2--3--5--------2---| 
E|-0-----3------------------------------------3----------------------| 

X2 - Chorus 
G|------------------------------| 
D|----5--2--5----7--5--4--2--0--| 
A|-3----------5-----------------| 
E|------------------------------| 

X1 (somehow I ended up being in between...) 
G|---------------------------------------9--11--| 
D|------------5--7--9--7--10--9--10--12---------| 
A|-2[slide]7------------------------------------| 
E|----------------------------------------------| 

X4 
G|--------------------| 
D|---------------2-4--| 
A|--------2-3-5-------| 
E|-0-2-3--------------| 

X2 
G|---------| 
D|---------| 
A|---------| 
E|-0>-3-2--| 

X2 
G|-------------------| 
D|-----------2-4-----| 
A|----- --5-------5--| 
E|-0>-3--------------| 
"            
Submit corrections

comments powered by Disqus
↑ Back to top | Afi Bass for Despair Factor. Lyrics for acoustic guitar and electric guitar. 1 Tablatures and chords are parodies/interpretations of the original songs. You may use it for private study, scholarship, research or language learning purposes only