» » »

Afi, Smile Tabs (ver.2)

Artists:  A B C D E F G H I J K L M N O P Q R S T U V W X Y Z # 

Smile Tabs (ver.2)

Afi Tabs
 Rating:
4/5 (4 votes)
Smile lessons Tabs too difficult? Try these video lessons and learn fast
1
                A Fire Inside,
Smile


INTRO
------------------------------------|
-----------------4------------------|
-----------------2-----9------------|
--x\pick---------2-----9------------|
--x\\-scr*pes----0-----7------------|
-----------------0------------------|



INTRO/VERSE
-----------------------------------------------------------------------|
-----------------------------------------------------------------------|
---5^7------999-----5^7---------------5^7------999---------------------|
---5^7------999-----5^7------9--------5^7------999---------------------|
---5--------777-----5--------7-5-7----5--------777-5^7-5^7-8^7-7^5-5^7-|
00-----0-00-------00----0-00---3-5-000----0-00-----0---0---0---0---0---|



VERSE
-----------------------------------------------------------------------|
-----------------------------------------------------------------------|
---5^7------999-----5^7---------------5^7------999---------------------|
---5^7------999-----5^7------9--------5^7------999---------------------|
---5--------777-----5--------7-5-7----5--------777-5^7-5^7-8^7-7^5-5^7-|
-00----0-00------00-----0-00---3-5--00----0-00-----0---0---0---0---0---|



VERSE
-----------------------------------------------------------------------|
-----------------------------------------------------------------5-----|
---5^7------999-----5^7---------------5^7------99--------------4-x-----|
---5^7------999-----5^7------9--------5^7------99--------------2-2-----|
---5--------777-----5--------7-5-7----5--------77-x---8-7-5-55-2-------|
-00----0-00------00-----0-00---3-5--00----0-00----x-0-6-5-3-33-0-------|



VERSE
-speed-pick-this-whole-measure------------|
-666666-888888811-11-11-11-11-11-11-11-11-|
-xxxxxx-xxxxxxx-x--x--x--x--x--x--x--x--x-|
-333333-5555555-8--8--8--8--8--8--8--8--8-|
------------------------------------------|
------------------------------------------|



-------------------------------------|
-------------------------------------|
---5^7------999----------------------|
---5^7------999----------------------|
---5--------777-5^7-5^7-8^7-7^5-5^7--|
-00----0-00-----0---0---0---0---0----|



VERSE
-----------------------------------------------------------------------|
-----------------------------------------------------------------------|
---5^7------999-----5^7---------------5^7------99--------------4-------|
---5^7------999-----5^7------9--------5^7------99--------------2-----5-|
---5--------777-----5--------7-5-7----5--------77-x---8-7-5-55-2-----5-|
00-----0-00------00-----0-00---3-5-o00----0-00----x-0-6-5-3-33-0-----3-|



-------------------------000---000-------000---000-----000---000---0---|
------------6-66--888--6-555-6-555-6-5-6-555-6-555-656-555-6-555-656---|
---7--------5-55--777--------------------------------------------------|
---7---8----3-33--555--------------------------------------------------|
-5-5---8----3-33--555--------------------------------------------------|
-5-5-5-6---------------------------------------------------------------|



-----------------------------------------------------------------------|
-----------------------------------------------------------------------|
---5^7------999-----5^7---------------5^7------999---------------------|
---5^7------999-----5^7------9--------5^7------999---------------------|
---5--------777-----5--------7-5-7----5--------777-5^7-5^7-8^7-7^5-5^7-|
00-----0-00------00-----0-00---3-5--00----0-00-----0---0---0---0---0---|



-----------------------------------------------------------------------|
-----------------------------------------------------------------------|
---5^7------999-----5^7---------------5^7------999---------------------|
---5^7------999-----5^7------9--------5^7------999---------------------|
---5--------777-----5--------7-5-7----5--------777-5^7-5^7-8^7-7^5-5^7-|
00-----0-00------00-----0-00---3-5--00----0-00-----0---0---0---0---0---|



-----------------------------------------------000---000-------000---000-|
---------------------------------------------6-555-6-555-6-5-6-555-6-555-|
-------------------------------------------------------------------------|
-------------------------------------------------------------------------|
5^7-5^7-8^7-7^5-5^7-77777777777777777777777------------------------------|
0---0---0---0---0---00000000000000000000000------------------------------|



--0---000---000----0---000---000----0---000---000----0---000---000----|
6-5-6-555-6-555--6-5-6-555-6-555--6-5-6-555-6-555--6-5-6-555-6-555----|
----------------------------------------------------------------------|
-------------------FADE-OUT-ON-THIS-RIFF------------------------------|
----------------------------------------------------------------------|
----------------------------------------------------------------------|
            
Submit corrections

comments powered by Disqus
↑ Back to top | Afi Tabs for Smile. Lyrics for acoustic guitar and electric guitar. 1 Tablatures and chords are parodies/interpretations of the original songs. You may use it for private study, scholarship, research or language learning purposes only