» » »

Afi, Porphyria Cutanea Tarda Tabs (ver.2)

Artists:  A B C D E F G H I J K L M N O P Q R S T U V W X Y Z # 

Porphyria Cutanea Tarda Tabs (ver.2)

Afi Tabs
 Rating:
4/5 (4 votes)
Porphyria Cutanea Tarda lessons Tabs too difficult? Try these video lessons and learn fast
1
                                     Porphyria Cutanea Tarda
 
 LISTEN TO SONG FOR ORDER AND TIMING

 INTRO
|-----------------7-7-7----|
|-----------------7-7-9----|
|-----------------8-8-9----|
|-----------------9-9-9----|
|-9-9-10-10-12-12-9-9-7----|
|-7-7--7--7--7--7-7-7-7----|


 VERSE 
|-0-1-5-3-3-5-3-5-3----|
|-0-3-5-3-3-5-3-5-3----|
|-1-3-6-4-5-7-4-6-4----|
|-2-3-7-5-5-7-5-7-5----|
|-2-1-7-5-3-5-5-7-5----|
|-0-1-5-3-3-5-3-5-3----|


  
|-0-1-5-3-3-5-3-5-0----|
|-0-3-5-3-3-5-3-5-0----|
|-1-3-6-4-5-7-4-6-1----|
|-2-3-7-5-5-7-5-7-2----|
|-2-1-7-5-3-5-5-7-2----|
|-0-1-5-3-3-5-3-5-0----|


  
|-0-1-5-3-3-5-3-5-3----|
|-0-3-5-3-3-5-3-5-3----|
|-1-3-6-4-5-7-4-6-4----|
|-2-3-7-5-5-7-5-7-5----|
|-2-1-7-5-3-5-5-7-5----|
|-0-1-5-3-3-5-3-5-3----|


                   
                  PM----------|
|-0-1-5-3-3-5-3-5---------------0----|
|-0-3-5-3-3-5-3-5---------------0----|
|-1-3-6-4-5-7-4-6---------------1----|
|-2-3-7-5-5-7-5-7-2-2-2-2-2-2-2-2----|
|-2-1-7-5-3-5-5-7-2-2-2-2-2-2-2-2----|
|-0-1-5-3-3-5-3-5-0-0-0-0-0-0-0-0----|


 CHORUS                          
                          PM----|   
|-3-3-5-5-3-3-0-0-3-3-5-5---------------0----|
|-5-5-7-7-3-3-0-0-5-5-7-7---------------0----|
|-5-5-7-7-4-4-0-0-5-5-7-7---------------1----|
|-5-5-7-7-5-5-2-2-5-5-7-7-2-2-2-2-2-2-2-2----|
|-3-3-5-5-5-5-2-2-3-3-5-5-2-2-2-2-2-2-2-2----|
|-3-3-5-5-3-3-0-0-3-3-5-5-0-0-0-0-0-0-0-0----|


 BREAK          
|-0--6-5--3--5-0----| 3X
|-0--6-5--3--5-0----|
|-1--7-6--4--6-1----|
|-2--8-7--5--7-2----|
|-2--8-7--5--7-2----|
|-0--6-5--3--5-0----|


  
|-3-3-5-5-----------------7-7-----------| 1X
|-3-3-5-5-----------------7-7-----------|
|-4-4-6-6-----------------6-6-8-9-11----|
|-5-5-7-7-----------------9-9-----------|
|-5-5-7-7-9-9-10-10-12-12-9-9-----------|
|-3-3-5-5-7-7--7--7--7--7-7-7-7-7--7----|


 OUTRO 
|-0-7-5-3-3-5-0-0-7-5-3-3-5-0----|
|-0-7-5-3-3-5-0-0-7-5-3-3-5-0----|
|-1-9-7-5-4-6-1-1-9-7-5-4-7-1----|
|-2-9-7-5-5-7-2-2-9-7-5-5-7-2----|
|-2-7-5-3-5-7-2-2-7-5-3-5-5-2----|
|-0-7-5-3-3-5-0-0-7-5-3-3-5-0----|
            
Submit corrections

comments powered by Disqus
↑ Back to top | Afi Tabs for Porphyria Cutanea Tarda. Lyrics for acoustic guitar and electric guitar. 1 Tablatures and chords are parodies/interpretations of the original songs. You may use it for private study, scholarship, research or language learning purposes only