» » »

Afi, Now The World Bass tabs (ver.2)

Artists:  A B C D E F G H I J K L M N O P Q R S T U V W X Y Z # 

Now The World Bass tabs (ver.2)

Afi Tabs
 Rating:
4/5 (4 votes)
Now The World  lessons Tabs too difficult? Try these video lessons and learn fast
                (2)
Intro:(x4)
g ---------------------------------------------------------------------------|
d ------------------------9-----9----------------------------4-----4------|
a ------------4-6-7-7-7-7-7--7-7-4-4-4-4-4-2----------------------|
e -4-4-4-4-------------------------------------------2-2---2-2--2-2--|

Verse:
g -------------------|
d -----2~----------|
a ----------4~-----|
e -4~---------2~-|

g -----------------------------------------------------------------------------------------|
d -----------------------------------------------------------------------------------------|
a -2-2-2-2-2-2-2-2-------------------------------------------------------------------|
e -----------------------3-3-3-3-3-3-3-3-0-0-0-0-0-0-0-0-2-2-2-2-2-2-2-2-|

g -----------------------------------------------------------------------------------------|
d -----------------------------------------------------------------------------------------|
a -----------------------------------------------------------------------------------------|
e -3-3-3-3-3-3-3-3-0-0-0-0-0-0-0-0-2-2-2-2-2-2-2-2-2-2-2-2-2-2-2-2-|

Chorus:
g-----------------------------------------------------------------------------------------|
d -------------------------------------4-5-4--------------------------------------------|
a ---------------6-7-6-5-5-5-5-5-----------------------4-5-4------5--------7----|
e -7-7-7-7-7-------------------------------5-5-5-5-5---------3-3---3-5-5---5--|

bridge:
g -----------------------------------------------------------------------------------------|
d -4----6----3-3-3-3-3-3---4----1-1-1-6-4-4-6-3-3-4-3-----------------------|
a -------------------------------------------------------------------4-4-4-4-4-4-4-4-|
e -----------------------------------------------------------------------------------------|

g -----------------------------------------------------------------------------------------|
d -4-4-4-4-4-4-4-4-6-6-6-6-6-6-6-6-4-4-4-4-4-4-4-4-2-2-2-2-2-2-2-2-|
a------------------------------------------------------------------------------------------|
e -----------------------------------------------------------------------------------------|

g --------------------------------------------------------------------------------------------------------------|
d--------------------------------------------------------------------------------------------------------------|
a -6-6-6-6-6-------------------------------------4-4-4-4-4------------------------2-2-2-2-----------|
e--------------------------2-2-2-2-2---------------------------2~4-4-4-4-4-4-4-----------2-2-2-2-|

g --------------------------------------------------------------------------------------------------------------------------------------------------------|
d --------------------------------------------------------------------------------------------------------------------------------------------------------|
a -6-6-6-6-6-6-6-6-6-6-6-6-6-4-4-4-4------------------------------------------2-2-2-2-4-4-4-4-4-4-4-4-4-4-4-4-4-4-4-2-2-2-2-|
e ------------------------------------------------2-2-2-2-2-2-2-2-2-2-2-2-2-2-2----------------------------------------------------------------|

g --------------------------------------------------------------------------------------------------------------------------------------------------------------------------------------|
d --------------------------------------------------------------------------------------------------------------------------------------------------------------------------------------|
a -6-6-6-6-6-6-6-6-6-6-6-6-6-4-4-4-4------------------------------------------2-2-2-2-4-4-4-4-4-4-4-4-4-4-4-4-4-4-4---------------------2-2-2-2-----------|
e ------------------------------------------------2-2-2-2-2-2-2-2-2-2-2-2-2-2-2-----------------------------------------------------2~4-4-4-4-4-4-----------2-2-2-2-|

g ---------------------------------------------|
d ---------------------------------------------|
a -0~2-2-2-2-2-2-2-2-4-4-4-4-4--6~|
e ---------------------------------------------|
            
Submit corrections

comments powered by Disqus
↑ Back to top | Afi Bass for Now The World. Lyrics for acoustic guitar and electric guitar. Tablatures and chords are parodies/interpretations of the original songs. You may use it for private study, scholarship, research or language learning purposes only