» » »

Narrative Of A Soul Against Souls Bass tabs (ver.1)

Artists:  A B C D E F G H I J K L M N O P Q R S T U V W X Y Z # 

Narrative Of A Soul Against Souls Bass tabs (ver.1)

Afi
Rating:
0/5 (0 votes)

Hard to play? Try these video lessons and learn fast.
                Intro
G|-------------------------------------------------|-------|
D|-------------------------------------------------|-------|strum the string
A|-------------------2-3-555-3-5-3-2-3333----55-7\-|----7\-|during the slides
E|-0000-5-3-2-333333----------------------33-------|-0~----|

Verse
G|-----------------------|-----------------------|
D|-----------------------|-----------------------|
A|-0-222-0-222-----------|-0-222-0-222-5555------|
E|-------------3333-5555-|------------------5555-|

G|--------------------|--------------------|
D|--------------------|--------------------|
A|-22222222-----------|-22222222-5555------|
E|----------3333-5555-|---------------5555-|

Chorus
G|--------------------------------------------|-------------|
D|--------------------------------------------|-------------|
A|-----------------2-3-555-3-5-3-2-3333----55-|----------7\-|
E|-00000000-333333----------------------33----|-00000000----|

G|--------------------------------------------|-------------|
D|--------------------------------------------|-------------|
A|-77777777--------2-3-555-3-5-3-2-3333----55-|----------7\-|strum
E|----------333333----------------------33----|-00000000----|

-verse
-chorus

Bridge
G|---------------------------------9~-7~----9-9-9/12-12-12\7-7-7-11-9-7-----------|
D|---------5-5-7-5------------------------------------------------------999999999-|
A|-7-7-7-7---------7-5-7~-5~-5~-7~-------5~---------------------------------------|
E|--------------------------------------------------------------------------------|

You could also play the parts on the g-string this way

G|--------4-------4---7-12-12-11-9-7-----------|
D|--5-0-2-2-5-0-2-2-5-5-0--12-0--0-0-999999999-|
A|---------------------------------------------|
E|---------------------------------------------|

-chorus

Ending
G|-------9-7----------------|
D|-----------9-7-5-----7-99-|
A|----7~-----------7-5------|
E|-0~-----------------------|
            
Hard to play? Try these video lessons and learn fast. | Correct




comments powered by Disqus
↑ Back to top | Tablatures and chords are parodies/interpretations of the original songs. You may use it for private study, scholarship, research or language learning purposes only