» » »

Afi, Keeping Out Of Direct Sunlight Bass tabs (ver.2)

Artists:  A B C D E F G H I J K L M N O P Q R S T U V W X Y Z # 

Keeping Out Of Direct Sunlight Bass tabs (ver.2)

Afi Tabs
 Rating:
4/5 (4 votes)
Keeping Out Of Direct Sunlight lessons Tabs too difficult? Try these video lessons and learn fast
1
                Keeping Out of Direct Sunlight
-AFI

Standard Tuning (G,D,A,E)


G|----------------------|
D|----------------------|
A|----5-----------------|
E|-5-----5-------3-5----|

G|---------------------------------------------------------------|
D|---------------------------------------------------------------|
A|---------5--------------------------------5------5-3-3---------|
E|-5-5-------5-5----3-3-3-3-3-3-3---5-5-------5-5---------5-3-3--|

G|-------------------------------------------------------------------|
D|-------------------------------------------------------------------|
A|---------------7-8-8-8-8-8-8-8-7---------------7-8-8-8-8-----------|
E|-5-5-5-5-5-5-5-------------------5-5-5-5-5-5-5-----------3-3-3-3---|

G|-------------------------------------------------------------------|
D|-------------------------------------------------------------------|
A|---------------7-8-8-8-8-8-8-8-7-----------------8-8-8-8-7-7-7-7---|
E|-5-5-5-5-5-5-5-------------------8-8-8-8-8-8-8-8-------------------|

G|-----------------------------------------------------------------------|
D|-----------------------------------------------------------------------|
A|---5---------5-----3-3-3---5----------5---------5-----3-3-3---5--------|
E|-5---5---3-5---5-------------3-3-3--5---5---3-5---5-------------3-3-3--|

This is the whole song (58 seconds). Play from start to finish, a classic intro song by AFI.
            
Submit corrections

comments powered by Disqus
↑ Back to top | Afi Bass for Keeping Out Of Direct Sunlight. Lyrics for acoustic guitar and electric guitar. 1 Tablatures and chords are parodies/interpretations of the original songs. You may use it for private study, scholarship, research or language learning purposes only