» » »

Heart Broken Bass tabs (ver.1)

Artists:  A B C D E F G H I J K L M N O P Q R S T U V W X Y Z # 

Heart Broken Bass tabs (ver.1)

Afi
Rating:
0/5 (0 votes)

Hard to play? Try these video lessons and learn fast.
                


G|---------------------------------4-----------------------------------------| 
D|-------------------------------5---7-5-------------------------------------| 
A|--------2-3-5555-7-5-7-5-7-5-7---------33333333----------------------------| 
E|-333333--------------------------------------------------------------------| 

G|---------------------------------------------------------------------------| 
D|-------5-------------------------------------------------------------------| 
A|---------7-5-3333-3-2-3-2--------------------------------------------------| 
E|-33333--------------------3------------------------------------------------| 

G|---------------------------------------------------------------------------| 
D|-5-3-----------------------------------------------------------------------| 
A|-----5-3-2-----------------------------------------------------------------| 
E|-----------5-3-------------------------------------------------------------|
            
Hard to play? Try these video lessons and learn fast. | Correct




comments powered by Disqus
↑ Back to top | Tablatures and chords are parodies/interpretations of the original songs. You may use it for private study, scholarship, research or language learning purposes only