>
 >
 >
Girl's Not Grey 2

Girl's Not Grey 2 Guitar Tabs

Afi - Girl's Not Grey 2 chords, tabs, tablatures, lyrics

Guitar lessons | Add/correct | Request | Top 50 tabs Artists:  A B C D E F G H I J K L M N O P Q R S T U V W X Y Z 0-9

Girl's Not Grey 2 Guitar Tabs – Afi

CD, Sheet music, Poster

Do you like Girl's Not Grey 2? Share with your friends now
ChordsTabsTabs v2Tabs v3
GIRLS NOT GREY
                               As recorded by AFI
                      (From the 2003 Album SING THE SORROW)

Words and Music by AFI

Gtr I (Eb Ab Db Gb Bb Eb)

 Intro
  Q=121
 4/4
  Gtr I
|----5-(5)-5-5-1--|-1-1-1-3-(3)-3-3-5--|
|----5-(5)-5-5-1--|-1-1-1-3-(3)-3-3-5--|
|----5-(5)-5-5-2--|-2-2-2-4-(4)-4-4-5--|
|----7-(7)-7-7-3--|-3-3-3-5-(5)-5-5-7--|
|----7-(7)-7-7-3--|-3-3-3-5-(5)-5-5-7--|
|----5-(5)-5-5-1--|-1-1-1-3-(3)-3-3-5--|


|-5-5-5-5-(5)-5-5-1--|-1-1-1-3-(3)-3-3-5---|
|-5-5-5-5-(5)-5-5-1--|-1-1-1-3-(3)-3-3-5---|
|-5-5-5-5-(5)-5-5-2--|-2-2-2-4-(4)-4-4-5---|
|-7-7-7-7-(7)-7-7-3--|-3-3-3-5-(5)-5-5-7---|
|-7-7-7-7-(7)-7-7-3--|-3-3-3-5-(5)-5-5-7---|
|-5-5-5-5-(5)-5-5-1--|-1-1-1-3-(3)-3-3-5---|


|-5-5-5-5-(5)-5-5-1--|-1-1-1-3-(3)-3-3-5--|
|-5-5-5-5-(5)-5-5-1--|-1-1-1-3-(3)-3-3-5--|
|-5-5-5-5-(5)-5-5-2--|-2-2-2-4-(4)-4-4-5--|
|-7-7-7-7-(7)-7-7-3--|-3-3-3-5-(5)-5-5-7--|
|-7-7-7-7-(7)-7-7-3--|-3-3-3-5-(5)-5-5-7--|
|-5-5-5-5-(5)-5-5-1--|-1-1-1-3-(3)-3-3-5--|


|-5-5-5-5-(5)-5-5-1--|-1-1-1--------------|
|-5-5-5-5-(5)-5-5-1--|-1-1-1-1-(1)--------|
|-5-5-5-5-(5)-5-5-2--|-2-2-2-0-(0)-4---2--|
|-7-7-7-7-(7)-7-7-3--|-3-3-3-------5-5-2--|
|-7-7-7-7-(7)-7-7-3--|-3-3-3-3-(3)-2-5-0--|
|-5-5-5-5-(5)-5-5-1--|-1-1-1---------3----|


 Verse
|---------------------|-----------------------|------------------------|
|-------1-1-1-1-1-3-3-|-3-3-3-3---------------|------------------------|
|-(2)---2-2-2-2-2-0-0-|-0-0-0-0-5-5-5-5-5-4-4-|-4-4-4-4-5-5-5-5-5-7-7--|
|-(2)-----------------|---------3-3-3-3-3-5-5-|-5-5-5-5-7-7-7-7-7-5-5--|
|-(0)-----------------|-----------------------|------------------------|
|---------------------|-----------------------|------------------------|


|-----------------------|-----------------------|-----------------------|
|-----------------------|---------1-1-1-1-1-3-3-|-3-3-3-3---------------|
|-7-7-7-7-7-7-7-7-7-5-5-|-5-5-5-5-2-2-2-2-2-0-0-|-0-0-0-0-5-5-5-5-5-4-4-|
|-5-5-5-5-4-4-4-4-4-3-3-|-3-3-3-3---------------|---------3-3-3-3-3-5-5-|
|-----------------------|-----------------------|-----------------------|
|-----------------------|-----------------------|-----------------------|


|-----------------------|-----------------------|-----------------------|
|-----------------------|-----------------------|---------1-1-1-1-1-3-3-|
|-4-4-4-4-5-5-5-5-5-7-7-|-7-7-7-7-7-7-7-7-7-5-5-|-5-5-5-5-2-2-2-2-2-0-0-|
|-5-5-5-5-7-7-7-7-7-5-5-|-5-5-5-5-4-4-4-4-4-3-3-|-3-3-3-3---------------|
|-----------------------|-----------------------|-----------------------|
|-----------------------|-----------------------|-----------------------|


|-----------------------|-----------------------|-----------------------|
|-3-3-3-3---------------|-----------------------|-----------------------|
|-0-0-0-0-5-5-5-5-5-4-4-|-4-4-4-4-5-5-5-5-5-7-7-|-7-7-7-7-7-7-7-7-7-5-5-|
|---------3-3-3-3-3-5-5-|-5-5-5-5-7-7-7-7-7-5-5-|-5-5-5-5-4-4-4-4-4-3-3-|
|-----------------------|-----------------------|-----------------------|
|-----------------------|-----------------------|-----------------------|


                             Chorus
|---------------------------|-------------1-(1)-1-1----|-------3-(3)-3-3-----|
|---------------------------|-------------1-(1)-1-1----|-------3-(3)-3-3-----|
|-5-5-5-5-2-2-2-2-2-2-2-2-2-|-2-2-2-2-2-2-2-(2)-2-2-5--|-5-5-5-4-(4)-4-4-2---|
|-3-3-3-3-2-2-2-2-2-2-2-2-2-|-2-2-2-2-2-2-3-(3)-3-3-5--|-5-5-5-5-(5)-5-5-2---|
|---------0-0-0-0-0-0-0-0-0-|-0-0-0-0-0-0-3-(3)-3-3-3--|-3-3-3-5-(5)-5-5-0---|
|---------------------------|-------------1-(1)-1-1----|-------3-(3)-3-3-----|


|-------1-(1)-1-1----|-------3-(3)-3-3----|
|-------1-(1)-1-1----|-------3-(3)-3-3----|
|-2-2-2-2-(2)-2-2-5--|-5-5-5-4-(4)-4-4-2--|
|-2-2-2-3-(3)-3-3-5--|-5-5-5-5-(5)-5-5-2--|
|-0-0-0-3-(3)-3-3-3--|-3-3-3-5-(5)-5-5-0--|
|-------1-(1)-1-1----|-------3-(3)-3-3----|


|-------1-(1)-1-1----|-------3-(3)-3-3----|
|-------1-(1)-1-1----|-------3-(3)-3-3----|
|-2-2-2-2-(2)-2-2-5--|-5-5-5-4-(4)-4-4-2--|
|-2-2-2-3-(3)-3-3-5--|-5-5-5-5-(5)-5-5-2--|
|-0-0-0-3-(3)-3-3-3--|-3-3-3-5-(5)-5-5-0--|
|-------1-(1)-1-1----|-------3-(3)-3-3----|


|-------1-(1)-1-1----|-------------------------|
|-------1-(1)-1-1----|-------0-0-0-0-0-0-0-0-0-|
|-2-2-2-2-(2)-2-2-5--|-5-5-5-1-1-1-1-1-1-1-1-1-|
|-2-2-2-3-(3)-3-3-5--|-5-5-5-2-2-2-2-2-2-2-2-2-|
|-0-0-0-3-(3)-3-3-3--|-3-3-3-2-2-2-2-2-2-2-2-2-|
|-------1-(1)-1-1----|-------0-0-0-0-0-0-0-0-0-|


|-------------------------------------------|
|-0-0-0-0-0-0-------------------------------|
|-1-1-1-1-1-1-16-16-16-16-16-16-16-16-16-16-|
|-2-2-2-2-2-2-------------------------------|
|-2-2-2-2-2-2-14-14-14-14-14-14-14-14-14-14-|
|-0-0-0-0-0-0-------------------------------|


|---------------------------------|
|---------------------------------|
|-16-16-16-16-16-16-5-5-5-5-5-7-7-|
|-------------------7-7-7-7-7-5-5-|
|-14-14-14-14-14-14---------------|
|---------------------------------|


 Verse
|-----------------------|-----------------------|
|-----------------------|-----------------------|
|-7-7-7-7-5-5-5-5-5-4-4-|-4-4-4-4-5-5-5-5-5-7-7-|
|-5-5-5-5-3-3-3-3-3-5-5-|-5-5-5-5-7-7-7-7-7-5-5-|
|-----------------------|-----------------------|
|-----------------------|-----------------------|


|-----------------------|-----------------------|-----------------------|
|-----------------------|---------1-1-1-1-1-3-3-|-3-3-3-3---------------|
|-7-7-7-7-7-7-7-7-7-5-5-|-5-5-5-5-2-2-2-2-2-0-0-|-0-0-0-0-5-5-5-5-5-4-4-|
|-5-5-5-5-4-4-4-4-4-3-3-|-3-3-3-3---------------|---------3-3-3-3-3-5-5-|
|-----------------------|-----------------------|-----------------------|
|-----------------------|-----------------------|-----------------------|


|-----------------------|-----------------------|-----------------------|
|-----------------------|-----------------------|---------1-1-1-1-1-3-3-|
|-4-4-4-4-5-5-5-5-5-7-7-|-7-7-7-7-7-7-7-7-7-5-5-|-5-5-5-5-2-2-2-2-2-0-0-|
|-5-5-5-5-7-7-7-7-7-5-5-|-5-5-5-5-4-4-4-4-4-3-3-|-3-3-3-3---------------|
|-----------------------|-----------------------|-----------------------|
|-----------------------|-----------------------|-----------------------|


|-----------------------|-----------------------|-----------------------|
|-3-3-3-3---------------|-----------------------|-----------------------|
|-0-0-0-0-5-5-5-5-5-4-4-|-4-4-4-4-5-5-5-5-5-7-7-|-7-7-7-7-7-7-7-7-7-5-5-|
|---------3-3-3-3-3-5-5-|-5-5-5-5-7-7-7-7-7-5-5-|-5-5-5-5-4-4-4-4-4-3-3-|
|-----------------------|-----------------------|-----------------------|
|-----------------------|-----------------------|-----------------------|


                             Chorus
|---------------------------|-------------1-(1)-1-1----|-------3-(3)-3-3-----|
|---------------------------|-------------1-(1)-1-1----|-------3-(3)-3-3-----|
|-5-5-5-5-2-2-2-2-2-2-2-2-2-|-2-2-2-2-2-2-2-(2)-2-2-5--|-5-5-5-4-(4)-4-4-2---|
|-3-3-3-3-2-2-2-2-2-2-2-2-2-|-2-2-2-2-2-2-3-(3)-3-3-5--|-5-5-5-5-(5)-5-5-2---|
|---------0-0-0-0-0-0-0-0-0-|-0-0-0-0-0-0-3-(3)-3-3-3--|-3-3-3-5-(5)-5-5-0---|
|---------------------------|-------------1-(1)-1-1----|-------3-(3)-3-3-----|


|-------1-(1)-1-1----|-------3-(3)-3-3----|
|-------1-(1)-1-1----|-------3-(3)-3-3----|
|-2-2-2-2-(2)-2-2-5--|-5-5-5-4-(4)-4-4-2--|
|-2-2-2-3-(3)-3-3-5--|-5-5-5-5-(5)-5-5-2--|
|-0-0-0-3-(3)-3-3-3--|-3-3-3-5-(5)-5-5-0--|
|-------1-(1)-1-1----|-------3-(3)-3-3----|


|-------1-(1)-1-1----|-------3-(3)-3-3----|
|-------1-(1)-1-1----|-------3-(3)-3-3----|
|-2-2-2-2-(2)-2-2-5--|-5-5-5-4-(4)-4-4-2--|
|-2-2-2-3-(3)-3-3-5--|-5-5-5-5-(5)-5-5-2--|
|-0-0-0-3-(3)-3-3-3--|-3-3-3-5-(5)-5-5-0--|
|-------1-(1)-1-1----|-------3-(3)-3-3----|


|-------1-(1)-1-1----|-------------------------|
|-------1-(1)-1-1----|-------0-0-0-0-0-0-0-0-0-|
|-2-2-2-2-(2)-2-2-5--|-5-5-5-1-1-1-1-1-1-1-1-1-|
|-2-2-2-3-(3)-3-3-5--|-5-5-5-2-2-2-2-2-2-2-2-2-|
|-0-0-0-3-(3)-3-3-3--|-3-3-3-2-2-2-2-2-2-2-2-2-|
|-------1-(1)-1-1----|-------0-0-0-0-0-0-0-0-0-|


|-------------------------------------------|
|-0-0-0-0-0-0-------------------------------|
|-1-1-1-1-1-1-16-16-16-16-16-16-16-16-16-16-|
|-2-2-2-2-2-2-------------------------------|
|-2-2-2-2-2-2-14-14-14-14-14-14-14-14-14-14-|
|-0-0-0-0-0-0-------------------------------|


|-------------------5-5-5-5-5-3-3-|
|-------------------6-6-6-6-6-5-5-|
|-16-16-16-16-16-16-7-7-7-7-7-5-5-|
|-------------------7-7-7-7-7-5-5-|
|-14-14-14-14-14-14-5-5-5-5-5-3-3-|
|---------------------------------|


 Interlude
|-3-3-3-3-3-3-3-3-3-3-5-5-|-5-5-5-5-5-5-5-5-5-5-3-3-|
|-5-5-5-5-5-3-3-3-3-3-5-5-|-5-5-5-5-5-6-6-6-6-6-5-5-|
|-5-5-5-5-5-4-4-4-4-4-5-5-|-5-5-5-5-5-7-7-7-7-7-5-5-|
|-5-5-5-5-5-5-5-5-5-5-7-7-|-7-7-7-7-7-7-7-7-7-7-5-5-|
|-3-3-3-3-3-5-5-5-5-5-7-7-|-7-7-7-7-7-5-5-5-5-5-3-3-|
|-----------3-3-3-3-3-5-5-|-5-5-5-5-5---------------|


|-3-3-3-3-3-3-3-3-3-3-5-5-|-5-5-5-5-10----------------10-10-|
|-5-5-5-5-5-3-3-3-3-3-5-5-|-5-5-5-5-12--8--8--8--8--8-10-10-|
|-5-5-5-5-5-4-4-4-4-4-5-5-|-5-5-5-5-12--9--9--9--9--9-12-12-|
|-5-5-5-5-5-5-5-5-5-5-7-7-|-7-7-7-7-12-10-10-10-10-10-12-12-|
|-3-3-3-3-3-5-5-5-5-5-7-7-|-7-7-7-7-10-10-10-10-10-10-10-10-|
|-----------3-3-3-3-3-5-5-|-5-5-5-5-----8--8--8--8--8-------|


|-10-10-10-10-10-----------------8--8--|
|-10-10-10-10-10-12-12-12-12-12--8--8--|
|-12-12-12-12-12-12-12-12-12-12--9--9--|
|-12-12-12-12-12-14-14-14-14-14-10-10--|
|-10-10-10-10-10-14-14-14-14-14-10-10--|
|----------------12-12-12-12-12--8--8--|


|--8--8--8--8--8----------------------|
|--8--8--8--8--8-10-10-10-10-10--8--8-|
|--9--9--9--9--9-10-10-10-10-10--9--9-|
|-10-10-10-10-10-12-12-12-12-12-10-10-|
|-10-10-10-10-10-12-12-12-12-12-10-10-|
|--8--8--8--8--8-10-10-10-10-10--8--8-|


                           Breakdown
|----------------3-(3)----|-(3)----------------|
|--8--8--8--8--8-3-(3)----|-(3)-----5-(5)---5--|
|--9--9--9--9--9-4-(4)----|-(4)---2-------4----|
|-10-10-10-10-10-5-(5)----|-(5)----------------|
|-10-10-10-10-10-5-(5)----|-(5)----------------|
|--8--8--8--8--8-3-(3)----|-(3)----------------|


|---------------------|------------------|
|-----------------5---|----------------5-|
|-4-5-(5)-----------4-|-(4)----(4)---2---|
|---------7-(7)-5-----|------------------|
|---------------------|------------------|
|---------------------|------------------|


|--------------------|------------------|
|-(5)---5------------|-------5----------|
|-----4----4-5-(5)---|---------4-(4)----|
|------------------5-|-(5)-6------------|
|--------------------|------------------|
|--------------------|------------------|


|--------------------|---------------------|
|---------5-(5)---5--|-----------------5---|
|-(4)---2-------4----|-4-5-(5)-----------4-|
|--------------------|---------7-(7)-5-----|
|--------------------|---------------------|
|--------------------|---------------------|


|------------------|--------------------|
|----------------5-|-(5)---5------------|
|-(4)----(4)---2---|-----4----4-5-(5)---|
|------------------|--------------------|
|------------------|------------------7-|
|------------------|--------------------|


|-------------------|-------------5-8---5-|
|-------5-----5-----|---------------------|
|---------4-----4---|-----4-(4)-2---------|
|-----5-----3-----2-|-(2)-------------7---|
|-(7)---------------|---------------------|
|-------------------|---------------------|


|-8-------5-(5)---3-7-|-(7)----(7)-----|
|---------------------|----------------|
|---------------------|----------------|
|---7-(7)-------5-----|----------------|
|---------------------|--------------8-|
|---------------------|----------------|


|----8------8----------|------15----------13-(13)----|
|-10-----10---------10-|-(10)----13----13---------13-|
|----------------------|------------14---------------|
|----------------------|-----------------------------|
|------8------8-(8)----|-----------------------------|
|----------------------|------15---------------------|


|-----------------12-------12--|------------------------------|
|-(13)---------------13--------|-13---------13-(13)----17-----|
|------14-(14)----------14-----|----14-(14)---------------16--|
|------------------------------|------------------------------|
|--------------12--------------|------------------------------|
|------------------------------|--------------------15--------|


|-------------------|-12-------12----------------|
|-------------------|----13--------13---------13-|
|-(16)----(16)------|-------14--------14-(14)----|
|-------------------|----------------------------|
|-------------------|----------------------------|
|----------------13-|----------------------------|


|------15-------15-------15-|----13-------13-------13--|
|-(13)-------13-------13----|-13-------13-------13-----|
|---------14-------14-------|-------14-------14--------|
|---------------------------|--------------------------|
|---------------------------|--------------------------|
|------15-------15-------15-|----13-------13-------13--|


|--------------------------------------------|-----1-1-1-1-1-----------|
|-13-----------------------------------------|-----1-1-1-1-1-----------|
|----14-14-14-14-12-12-12-12-10-10-10-10-9-9-|-9-9-2-2-2-2-2-5-5-5-5-5-|
|--------------------------------------------|-----3-3-3-3-3-5-5-5-5-5-|
|----12-12-12-12-10-10-10-10--8--8--8--8-7-7-|-7-7-3-3-3-3-3-3-3-3-3-3-|
|--------------------------------------------|-----1-1-1-1-1-----------|


 Chorus
|-----3-3-3-3-3-----------|-1-1-1-1-1-1-1-----------|-----3-3-3-3-3------------|
|-----3-3-3-3-3-----------|-1-1-1-1-1-1-1-----------|-----3-3-3-3-3------------|
|-5-5-4-4-4-4-4-2-2-2-2-2-|-2-2-2-2-2-2-2-5-5-5-5-5-|-5-5-4-4-4-4-4-2-2-2-2-2--|
|-5-5-5-5-5-5-5-2-2-2-2-2-|-3-3-3-3-3-3-3-5-5-5-5-5-|-5-5-5-5-5-5-5-2-2-2-2-2--|
|-3-3-5-5-5-5-5-0-0-0-0-0-|-3-3-3-3-3-3-3-3-3-3-3-3-|-3-3-5-5-5-5-5-0-0-0-0-0--|
|-----3-3-3-3-3-----------|-1-1-1-1-1-1-1-----------|-----3-3-3-3-3------------|


|-1-1-1-1-1-1-1-----------|-----3-3-3-3-3-----------|-1-1-1-1-1-1-1------------|
|-1-1-1-1-1-1-1-----------|-----3-3-3-3-3-----------|-1-1-1-1-1-1-1------------|
|-2-2-2-2-2-2-2-5-5-5-5-5-|-5-5-4-4-4-4-4-2-2-2-2-2-|-2-2-2-2-2-2-2-5-5-5-5-5--|
|-3-3-3-3-3-3-3-5-5-5-5-5-|-5-5-5-5-5-5-5-2-2-2-2-2-|-3-3-3-3-3-3-3-5-5-5-5-5--|
|-3-3-3-3-3-3-3-3-3-3-3-3-|-3-3-5-5-5-5-5-0-0-0-0-0-|-3-3-3-3-3-3-3-3-3-3-3-3--|
|-1-1-1-1-1-1-1-----------|-----3-3-3-3-3-----------|-1-1-1-1-1-1-1------------|


|-------------------------------|
|-----0-0-0-0-0-0-0-0-0-0-0-0-0-|
|-5-5-1-1-1-1-1-1-1-1-1-1-1-1-1-|
|-5-5-2-2-2-2-2-2-2-2-2-2-2-2-2-|
|-3-3-2-2-2-2-2-2-2-2-2-2-2-2-2-|
|-----0-0-0-0-0-0-0-0-0-0-0-0-0-|


|-----------------------------------------------|
|-0-0-------------------------------------------|
|-1-1-16-16-16-16-16-16-16-16-16-16-16-16-16-16-|
|-2-2-------------------------------------------|
|-2-2-14-14-14-14-14-14-14-14-14-14-14-14-14-14-|
|-0-0-------------------------------------------|


 Outro
|-------5-(5)-5-5-1--1-1-|-1-3-(3)-3-3-5--5-5-|
|-------5-(5)-5-5-1--1-1-|-1-3-(3)-3-3-5--5-5-|
|-16-16-5-(5)-5-5-2--2-2-|-2-4-(4)-4-4-5--5-5-|
|-------7-(7)-7-7-3--3-3-|-3-5-(5)-5-5-7--7-7-|
|-14-14-7-(7)-7-7-3--3-3-|-3-5-(5)-5-5-7--7-7-|
|-------5-(5)-5-5-1--1-1-|-1-3-(3)-3-3-5--5-5-|


|-5-5-(5)-5-5-1--1-1-|-1-3-(3)-3-3-5--5-5--|
|-5-5-(5)-5-5-1--1-1-|-1-3-(3)-3-3-5--5-5--|
|-5-5-(5)-5-5-2--2-2-|-2-4-(4)-4-4-5--5-5--|
|-7-7-(7)-7-7-3--3-3-|-3-5-(5)-5-5-7--7-7--|
|-7-7-(7)-7-7-3--3-3-|-3-5-(5)-5-5-7--7-7--|
|-5-5-(5)-5-5-1--1-1-|-1-3-(3)-3-3-5--5-5--|


|-5-5-(5)-5-5-1--1-1-|-1-3-(3)-3-3-5--5-5-|
|-5-5-(5)-5-5-1--1-1-|-1-3-(3)-3-3-5--5-5-|
|-5-5-(5)-5-5-2--2-2-|-2-4-(4)-4-4-5--5-5-|
|-7-7-(7)-7-7-3--3-3-|-3-5-(5)-5-5-7--7-7-|
|-7-7-(7)-7-7-3--3-3-|-3-5-(5)-5-5-7--7-7-|
|-5-5-(5)-5-5-1--1-1-|-1-3-(3)-3-3-5--5-5-|


|-5-5-(5)-5-5-1--1-1-|-1-------------------|
|-5-5-(5)-5-5-1--1-1-|-1-1-(1)-------------|
|-5-5-(5)-5-5-2--2-2-|-2-0-(0)-4---2-(2)---|
|-7-7-(7)-7-7-3--3-3-|-3-------5-5-2-(2)---|
|-7-7-(7)-7-7-3--3-3-|-3-3-(3)-2-5-0-(0)---|
|-5-5-(5)-5-5-1--1-1-|-1---------3---------|


|------------*|
|------------*|
|-(2)--------*|
|-(2)--------*|
|-(0)--------*|
|------------*|





Comments


Popular Afi tabs & chords
Bleed Black Bass Tabs
Days Of The Pheonix Bass Tabs
The Despair Factor 1 Bass Tabs
The Leaving Song Part Drum Tabs
Dream Of Waking Tabs
My Michelle 1 Tabs
Porphyria Cutanea Tarda 1 Tabs
The Leaving Song Intro Tabs
The Leaving Song Part Two Tabs
Two Of A Kind 1 Tabs


Song lyrics



↑ Back to top | Tablatures and chords are parodies/interpretations of the original songs. You may use it for private study, scholarship, research or language learning purposes only
© 2014 AZChords.com Contact us | Privacy policy | DMCA | Add/correct tabs | Request tabs | Top 50 tabs