>
 >
 >
Dancing Through Sunday 1

Dancing Through Sunday 1 Guitar Tabs

Afi - Dancing Through Sunday 1 chords, tabs, tablatures, lyrics

Guitar lessons | Add/correct | Request | Top 50 tabs Artists:  A B C D E F G H I J K L M N O P Q R S T U V W X Y Z 0-9

Dancing Through Sunday 1 Guitar Tabs – Afi

CD, Sheet music, Poster

Do you like Dancing Through Sunday 1? Share with your friends now
Bass TabsTabsTabs v2Tabs v3
Intro 
e|--------------------------------------------------------------------------------------------| 
B|--------------------------------------------------------------------------------------------| 
G|--16-16-16\15-15-15\14-14-14\12-12-12\9-9-9-9--16-16-16\15-15-15\14-14-14\12-12-12\9-9-9-9--| 
D|---x--x--x--x--x--x--x--x--x--x--x--x-x-x-x-x---x--x--x--x--x--x--x--x--x--x--x--x-x-x-x-x--| 
A|--14-14-14\13-13-13\10-10-10\10-10-10\7-7-7-7--14-14-14\13-13-13\12-12-12\10-10-10\7-7-7-7--| 
E|--------------------------------------------------------------------------------------------|  

e|--------------------------------------------------------------------------------------------| 
B|--------------------------------------------------------------------------------------------| 
G|--16-16-16\15-15-15\14-14-14\12-12-12\9-9-9-9--16-16-16\15-15-15\14-14-14\12-12-12\9-9-9-9--| 
D|---x--x--x--x--x--x--x--x--x--x--x--x-x-x-x-x---x--x--x--x--x--x--x--x--x--x--x--x-x-x-x-x--| 
A|--14-14-14\13-13-13\12-12-12\10-10-10\7-7-7-7--14-14-14\13-13-13\12-12-12\10-10-10\7-7-7-7--| 
E|--------------------------------------------------------------------------------------------|  

Verse 
e|-----------------------------------------------------------------------------------------| 
B|-----------------------------------------------------------------------------------------| 
G|9-9-9-9-9-9-9-9-9-9-9-------------------------------------9-9-9-9-9-9-9-9-9-9-9----------| 
D|9-9-9-9-9-9-9-9-9-9-9-10-10-10-10-10-10/12-12-12-12-12-12-9-9-9-9-9-9-9-9-9-9-9-10-10-10-| 
A|7-7-7-7-7-7-7-7-7-7-7-10-10-10-10-10-10/12-12-12-12-12-12-7-7-7-7-7-7-7-7-7-7-7-10-10-10-| 
E|-----------------------8--8--8--8--8--8/10-10-10-10-10-10------------------------8--8--8-| 

Cont.
e|---------|
B|---------|
G|---------|
D|-10-10-10|
A|-10-10-10|
E|--8--8--8|

e|------------------------------------------------------------------------------------------| 
B|------------------------------------------------------------------------------------------| 
G|---------------------9--%--9--%--9--%--9--%--9--%--9--------------------------------------| 
D|--12-12-12-12-12-12--9--%--9--%--9--%--9--%--9--%--9-10-10-10-10-10-10/12-12-12-12-12-12--| 
A|--12-12-12-12-12-12--7--%--7--%--7--%--7--%--7--%--7-10-10-10-10-10-10/12-12-12-12-12-12--| 
E|--10-10-10-10-10-10-----------------------------------8--8--8--8--8--8/10-10-10-10-10-10--|  

e|---------------------------------------------------------------------------------| 
B|---------------------------------------------------------------------------------| 
G|--16-16-16\15-15-15\14-14-14\12-12-12\9-9-9-9------------------------------------| 
D|---x--x--x--x--x--x--x--x--x--x--x--x-x-x-x-x-10-10-10-10-10-10/12--%--12-12-12--| 
A|--14-14-14\13-13-13\12-12-12\10-10-10\7-7-7-7-10-10-10-10-10-10/12--%--12-12-12--| 
E|-----------------------------------------------8--8--8--8--8--8/10--%--10-10-10--|  
Chorus 
e|------------------------------------------------------------------------------| 
B|------------------------------------------------------------------------------| 
G|-----------------------7-7/9-9-9-9-9-9-9-9-9-9-9-9-----------------------7-7--| 
D|--5-5-5-5-5-5-5-5-5-5--7-7/9-9-9-9-9-9-9-9-9-9-9-9--5-5-5-5-5-5-5-5-5-5--7-7--| 
A|--5-5-5-5-5-5-5-5-5-5--5-5/7-7-7-7-7-7-7-7-7-7-7-7--5-5-5-5-5-5-5-5-5-5--5-5--| 
E|--3-3-3-3-3-3-3-3-3-3-------------------------------3-3-3-3-3-3-3-3-3-3-------|  

e|-------7----7--7----7--7--7-7--7--7---------------------------------------------------| 
B|-------8----8--8----8--8--8-8--8--6---------------------------------------------------| 
G|--9----9--9----9--9-9--9--9-9--9-------------------------7-7/9-9-9-9-9-9-9-9-9-9-9-9--| 
D|--9-------9-------9-9-------9-------5-5-5-5-5-5-5-5-5-5--7-7/9-9-9-9-9-9-9-9-9-9-9-9--| 
A|--7-------7-------7-7-------7-------5-5-5-5-5-5-5-5-5-5--5-5/7-7-7-7-7-7-7-7-7-7-7-7--| 
E|------------------------------------3-3-3-3-3-3-3-3-3-3-------------------------------|

Chorus1 Ending 
e|--------------------------------------------| 
B|--------------------------------------------| 
G|---------------------------7-7-7-7/8-8-8-8--| 
D|-10-10-10-10-10-10-10-10---7-7-7-7/8-8-8-8--| 
A|-10-10-10-10-10-10-10-10---5-5-5-5/6-6-6-6--| 
E|--8--8--8--8--8--8--8--8--------------------|  

Chorus2 Ending 
e|----------------------------------------------7~~~~~~~~--| 
B|----------------------------------------------8~~~~~~~~--| 
G|--------------------------7-7-7-7/8-8-8-8-----9~~~~~~~~--| 
D|-10-10-10-10-10-10-10-10--7-7-7-7/8-8-8-8-----9~~~~~~~~--| 
A|-10-10-10-10-10-10-10-10--5-5-5-5/6-6-6-6-----7~~~~~~~~--| 
E|--8--8--8--8--8--8--8--8---------------------------------|  

Bridge 
e|----------------------| 
B|----------------------| 
G|----------------------| 
D|----------------------| 
A|--*7~~~~~~~~~~~~~~~~--| 
E|----------------------|  

Pre-Solo               This is The Only Part Im Not Sure of
    TAP ALL THIS.........................................................
e|-------------------------------------------------------------------------| 
B|-------------------------------------------------------------------------| 
G|----------------9-----------------------9-----------------------9--------| 
D|--12-9-0-10-9-0---0-9-0---12-9-0-10-9-0---0-8-0---12-9-0-10-9-0---0-7-0--| 
A|-------------------------------------------------------------------------| 
E|-------------------------------------------------------------------------| 
    .....................
e|-----------------------------------| 
B|-----------------------------------| 
G|----------------9------------------| 
D|--12-9-0-10-9-0---0-5-0--5/14~~~~--|I Was Told it Was Tapping So Thats My Attempt
A|-----------------------------------| 
E|-----------------------------------|  

Solo 
e|--------12h-15p-12------12h-15p-12-------------------------------------------|
B|----12--------------15---------------15-12h-15p-12-----12h-15p-12----12------|
G|---b14---------------------------------------------14--------------13--------|
D|-----------------------------------------------------------------------------| 
A|-----------------------------------------------------------------------------| 
E|-----------------------------------------------------------------------------|  

e|-----------------------------------------------------------------------------| 
B|-----------------------------------------------------------------------------| 
G|--14p12--14p12----12---------------------------------------------------------|
D|---------------14----14p12--14p12--------------------------------------------|
A|-----------------------------------------14p12--14p12--12p10-12p10-----------|
E|-----------------------------------------------------------------------12--/-|


e|----7-----8----10----11----12------------------------------------------------|
B|--b10---b11---b13---b14---b15--10h12p10--8h10p8---7h8p7----------------------|
G|--------------------------------------------------------7h9p7h9--------------|
D|-----------------------------------------------------------------------------| 
A|-----------------------------------------------------------------------------| 
E|-----------------------------------------------------------------------------|  

e|-----------------------------------------------------------------------------| 
B|-17--12p9-17--12p9--17--13p10-17--12p10-17--12p9-17----15p12-----12h15-------|
G|-T---------T--------T---------T---------T--------T----------h13--------------|
D|-----------------------------------------------------------------------------|
A|-----------------------------------------------------------------------------|
E|-----------------------------------------------------------------------------|

e|-----------------------------------------------------------------------------|
B|------------------------12h14p12-trill ------------------------12--14-12-14--|
G|--b9----h12-/-16---14--------------------down bend on 14---------14------14--|
D|-----------------------------------------------------------------------------|
A|-----------------------------------------------------------------------------|
E|-----------------------------------------------------------------------------|

Outro 
e|------------------------------------------------------------------------------------| 
B|------------------------------------------------------------------------------------| 
G|-------------------------------------7-7-7-7-7-7-7-7-7-7-7-7------------------------| 
D|-10-10-10-10-10-10-10-10-10-10-10-10-7-7-7-7-7-7-7-7-7-7-7-7-10-10-10-10-10-10-10---| 
A|-10-10-10-10-10-10-10-10-10-10-10-10-5-5-5-5-5-5-5-5-5-5-5-5-10-10-10-10-10-10-10---| 
E|--8--8--8--8--8--8--8--8--8--8--8--8--------------------------8--8--8--8--8--8--8---|

Cont.
e|-----------------|
B|-----------------|
G|-----------------|
D|-10-10-10-10-10--|
A|-10-10-10-10-10--|
E|--8--8--8--8--8--| 

e|------------------------------------------------------------------| 
B|------------------------------------------------------///17^------| 
G|--7-7-7-7-7-7-7-7-7-7-7-7/8-8-8-8/9------------------////19^^^^---| 
D|--7-7-7-7-7-7-7-7-7-7-7-7/8-8-8-8/9-------------------------------| 
A|--5-5-5-5-5-5-5-5-5-5-5-5/6-6-6-6/7-------------------------------| 
E|------------------------------------------------------------------|





Comments


Popular Afi tabs & chords
A Story At Three Bass Tabs
Morningstar Bass Tabs
Now The World 1 Bass Tabs
Soap Box Derby Bass Tabs
The Great Dissappointment Bass Tabs
The Mother In Me Bass Tabs
Initiation 1 Tabs
The Leaving Song 3 Tabs
Three Seconds Notice Tabs
Too Late For Gods Tabs


Song lyrics



↑ Back to top | Tablatures and chords are parodies/interpretations of the original songs. You may use it for private study, scholarship, research or language learning purposes only
© 2014 AZChords.com Contact us | Privacy policy | DMCA | Add/correct tabs | Request tabs | Top 50 tabs