» » »

Afi, Crop Tub Tabs (ver.1)

Artists:  A B C D E F G H I J K L M N O P Q R S T U V W X Y Z # 

Crop Tub Tabs (ver.1)

Afi Tabs
Rating:
0/5 (0 votes)
Crop Tub lessons Tabs too difficult? Try these video lessons and learn fast
                
Intro:
e-|-----------------------------------------------------------|
B-|-----------------------------------------------------------|
G-|-----------------------------------------------------------|
D-|-----6-6-----6------6-6-----6------6-6---6---------6-6-6-6-|
A-|-8-8-4-4-8-8-4--8-8-4-4-8-8-4--8-8-4-4-8-4-8-8-8-8-4-4-4-4-|
E-|-6-6-----6-6----6-6-----6-6----6-6-----6---6-6-6-6---------|

Verse:
e-|--------------------------------------------------------------|
B-|--------------------------------------------------------------|
G-|--------------------------------------------------------------|
D-|-6-6-6-6-----9--6-6-6-6-----9--6-6-6-6-----9--6-6-6-6-9-9-9-9-|
A-|-4-4-4-4-8-6-7--4-4-4-4-8-6-7--4-4-4-4-8-6-7--4-4-4-4-7-7-7-7-|
E-|---------6-4------------6-4------------6-4--------------------|

Chorus:
e-|---------------------------------------------------------
B-|---------------------------------------------------------
G-|---------------------------------------------------------
D-|-6-6-6-6-8-8-8-8-6-6-6-6-9-9-9-9-6-6-6-6-8-8-8-8-9-8-9-8-
A-|-4-4-4-4-6-6-6-6-4-4-4-4-7-7-7-7-4-4-4-4-6-6-6-6-7-6-7-6-
E-|---------------------------------------------------------

e-|---------------------------------------------------------|
B-|---------------------------------------------------------|
G-|---------------------------------------------------------|
D-|-6-6-6-6-8-8-8-8-6-6-6-6-9-8-6-8-6-6-6-6-8-8-8-8-9-8-9-8-|
A-|-4-4-4-4-6-6-6-6-4-4-4-4-7-6-4-6-4-4-4-4-6-6-6-6-7-6-7-6-|
E-|---------------------------------------------------------|

Bridge:
e-|-------------------------------|
B-|-------------------------------|
G-|-------------------------------|
D-|-----------------------9-9-9-9-|
A-|-8-8-8-8-8-8-8-8-6-4-4-7-7-7-7-|
E-|-6-6-6-6-6-6-6-6-4-2-2---------|
            

comments powered by Disqus
↑ Back to top | Afi Tabs for Crop Tub. Lyrics for acoustic guitar and electric guitar. Tablatures and chords are parodies/interpretations of the original songs. You may use it for private study, scholarship, research or language learning purposes only