» » »

Afi, Cereal Wars Bass tabs (ver.1)

Artists:  A B C D E F G H I J K L M N O P Q R S T U V W X Y Z # 

Cereal Wars Bass tabs (ver.1)

Afi Tabs
 Rating:
4/5 (4 votes)
Cereal Wars  lessons Tabs too difficult? Try these video lessons and learn fast
1
                (2)
AFI-Cereal Wars
Album-Answer that and stay fashionable
Standard Tuning

Please Rate it!

Intro
G-------------------------------
D--23532-------------23532-----5
A-3-----3--53232---5-------3----
E--------3--------3----------3--

Solo
G------------------
D------------------
A---77--9------7777
E-77--77-9-55-7----

Verse
G--------------------
D--------------------
A---77---9-------7777
E-77--77--9-55-7-----

Chorus
G-------------------------------------
D-------------------------------------
A------------5757---------------------
E-7777-5-7777-----7777-5-7777-88888888

Bridge
G----------------------------------------------
D----------------------------------------------
A---77--77--77--77--77-77--77777777--7-9------7
E-77--77--77--77--77--77--7---------7----9-5-7-

2nd Chorus
G---------------------------------------------------------------------
D---------------------------------------------------------------------
A------------5757------------5-5--------------5757--------------------
E-7777-5-7777----7777-5-7777--7-7--7777-5-7777----7777-5-7777-88888888
            
Submit corrections

comments powered by Disqus
↑ Back to top | Afi Bass for Cereal Wars. Lyrics for acoustic guitar and electric guitar. 1 Tablatures and chords are parodies/interpretations of the original songs. You may use it for private study, scholarship, research or language learning purposes only