» » »

Brownie Bottom Sundae Tabs (ver.1)

Artists:  A B C D E F G H I J K L M N O P Q R S T U V W X Y Z # 

Brownie Bottom Sundae Tabs (ver.1)

Afi
Rating:
0/5 (0 votes)

Hard to play? Try these video lessons and learn fast.
                
								  r= Release Bend
Intro Solo
e|--------------------9-----------------------------9------------------------|
B|----------------9--------9------9------9------9--------9------9------------|
G|-6))---------11-11b---11-11b-11-11b-11-11b-11-11b---11-11b-11-11b----------|
D|-6))-----------------------------------------------------------------------|
A|-4))-----------------------------------------------------------------------|
E|---------------------------------------------------------------------------|

Intro(continued)
e|-12p-11p-9-9----9----------------------------------------------------------|
B|-------------12-12b--12p-11p-9--9----9-------------------------------------|
G|----------------------------------11-11b-----------------------------------|
D|---------------------------------------------------------------------------|
A|---------------------------------------------------------------------------|
E|---------------------------------------------------------------------------|

Verse
e|-------------------------------------------------|-------------------------|
B|-------------------------------------------------|-------------------------|
G|-6-6-6--6-6--------------9-9-9--9-9--------------|-------------------------|
D|-6-6-6--6-6--7-7-7--7-7--9-9-9--9-9--9-9-9--9-9--|4x-----------------------|
A|-4-4-4--4-4--7-7-7--7-7--7-7-7--7-7--9-9-9--9-9--|-------------------------|
E|-------------5-5-5--5-5--------------7-7-7--7-7--|-------------------------|

Chorus
e|----------------------------------------|--|-------------------------------|
B|----------------------------------------|--|-------------------------------|
G|----------9-------------7-7-7-7-7-7-7-7-|--|-------------------------------|
D|-7-7-7-7--9--9-9-9-9-9--7-7-7-7-7-7-7-7-|3x|-7-7-7-7-7--9-9-9-9-9-9--------|
A|-7-7-7-7--7--9-9-9-9-9--5-5-5-5-5-5-5-5-|--|-7-7-7-7-7--9-9-9-9-9-9--------|
E|-5-5-5-5-----7-7-7-7-7------------------|--|-5-5-5-5-5--7-7-7-7-7-7--------|

Verse Again

Chorus Again

Solo Outro  
e|---------------------------------------------------------------12p-11p-9---|
B|----9---9--------9---------9---9--------9---------9---9--------------------|
G|-11-11b-11r-9------11---11-11b-11r-9------11---11-11b-11r-9----------------|
D|--------------11---------------------11---------------------11-------------|
A|---------------------------------------------------------------------------|
E|---------------------------------------------------------------------------|

Solo Outro (continued)
e|-9----9--------------------------------------------------------------------|
B|---12-12b------9---9-------9---------9---9---------------------------------|
G|-----------11-11b-11r-9------11---11-11b-11r-9----9------------------------|
D|------------------------11---------------------11---11-11((----------------|
A|---------------------------------------------------------------------------|
E|---------------------------------------------------------------------------|
            
Hard to play? Try these video lessons and learn fast. | Correct




comments powered by Disqus
↑ Back to top | Tablatures and chords are parodies/interpretations of the original songs. You may use it for private study, scholarship, research or language learning purposes only