» » »

Afi, Battled Tabs (ver.2)

Artists:  A B C D E F G H I J K L M N O P Q R S T U V W X Y Z # 

Battled Tabs (ver.2)

Afi Tabs
Rating:
5/5 (1 vote)
Battled lessons Tabs too difficult? Try these video lessons and learn fast
                Afireinside
Battled

--(9)-------------0-^---------------|
--feedback----0---4^-^--------------|
--note--------0---bend---x\-pick----|
--------------0----------x\\scr*pe--|
--------------0------------\\-------|
------------------------------------|


verse
-----------------------------------------------------------------|
-----------------------------------------------------------------|
---------------------------------------------------------5-------|
--777-x-5-777-x-5-777-x-5-3-xx-5---777-x-5-777-x-5-777-x-5-xx-5--|
--777-x-5-777-x-5-777-x-5-3-xx-5-x-777-x-5-777-x-5-777-x-3-xx-5--|
--555-----555-----555-----1-xx-3-x-555-----555-----555---3-xx-3--|


verse
-----------------------------------------------------------------|
-----------------------------------------------------------------|
-----------------------------------------------------------------|
--777-x-5-777-x-5-777-x-5-3-xx-5---777-x-5-777-x-5-(xx)\\-pick---|
--777-x-5-777-x-5-777-x-5-3-xx-5-x-777-x-5-777-x-5-(xx)\\\scr*pe-|
--555-----555-----555-----1-xx-3-x-555-----555-----(15)\\\\slide-|



chorus
------------------------------------------------------------------------|
------------------------------------------------------------------------|
--55----------------55--------------55--------------------------8-7-----|
--55-x-55-777777777-55-x-55-777/8\7-55-x-55-777777777-55-x-55---8-7-8-7-|
--33-x-55-777777777-33-x-55-777/8\7-33-x-55-777777777-33-x-55-x-6-5-8-7-|
--33---33-555555555-33---33-555/6\5-33---33-555555555-33---33-x-6-5-6-5-|



verse
-----------------------------------------------------------------|
--PM-----------------------------------------------------=-------|
--=======================================================5=====--
--777-x-5-777-x-5-777-x-5-3-xx-5---777-x-5-777-x-5-777-x-5-xx-5--|
--777-x-5-777-x-5-777-x-5-3-xx-5-x-777-x-5-777-x-5-777-x-3-xx-5--|
--------------------------1-xx-3-x-----------------------3-xx-3--|


verse
-------------------------------------------------------------|
--PM---------------------------------------------------------|
--========================================-------------------|
--777-x-5-777-x-5-777-x-5-3-xx-5---777-x-5-777-(xx)\\-pick---|
--777-x-5-777-x-5-777-x-5-3-xx-5-x-777-x-5-777-(xx)\\\scr*pe-|
--------------------------1-xx-3-x-555-----555-(15)\\\\slide-|




chorus
------------------------------------------------------------------------|
------------------------------------------------------------------------|
--55----------------55--------------55--------------------------8-7-----|
--55-x-55-777777777-55-x-55-777/8\7-55-x-55-777777777-55-x-55---8-7-8-7-|
--33-x-55-777777777-33-x-55-777/8\7-33-x-55-777777777-33-x-55-x-6-5-8-7-|
--33---33-555555555-33---33-555/6\5-33---33-555555555-33---33-x-6-5-6-5-|


OUTRO
------------------------------------|
------------------------------------|
8-7---------------------------------|
8-7-8-7-\---------------------------|
6-5-8-7-\---------------------------|
6-5-6-5-\---------------------------|
            
Submit corrections

comments powered by Disqus
↑ Back to top | Afi Tabs for Battled. Lyrics for acoustic guitar and electric guitar. Tablatures and chords are parodies/interpretations of the original songs. You may use it for private study, scholarship, research or language learning purposes only