>
 >
You See Me Crying

You See Me Crying Bass Tabs

Aerosmith - You See Me Crying chords, tabs, tablatures, lyrics

Guitar lessons | Add/correct | Request | Top 50 tabs Artists:  A B C D E F G H I J K L M N O P Q R S T U V W X Y Z 0-9

You See Me Crying Bass Tabs – Aerosmith

CD, Sheet music, Poster

Do you like You See Me Crying? Share with your friends now
Bass TabsChordsTabsTabs v2
Band: Aerosmith




     W                   W                   W                 
G||-------------------|-------------------|-------------------|
D||-------------------|-------------------|-------------------|
A||-------------------|-------------------|-------------------|
E||-------------------|-------------------|-------------------|


  W                   H        H           W                 
-------------------|--------------------|-------------------|
-------------------|--------------------|-------------------|
-------------------|--0-----------------|--3----------------|
-------------------|-----------1--------|-------------------|


  H        H           W                   H        E  E  E  E   
--------------------|-------------------|-----------------------|
--------------------|-------------------|-----------------------|
--0-----------------|--3----------------|--------------0--2--3--|
-----------1--------|-------------------|--3--------3-----------|


  H        H           W                   W                 
--------------------|-------------------|-------------------|
--------------------|-------------------|-------------------|
--L-----------------|-------------------|-------------------|
--------------------|-------------------|-------------------|


  W                   W                   W                   W                 
-------------------|-------------------|-------------------|-------------------|
-------------------|-------------------|-------------------|-------------------|
-------------------|-------------------|-------------------|-------------------|
-------------------|-------------------|-------------------|-------------------|


  H.           E  E     H        Q.     E     H        H         
---------------------|---------------------|--------------------|
---------------------|------------------3--|--L--------3--------|
------------------3--|--L--------3---------|--------------------|
---------------------|---------------------|--------------------|


  H        Q.     E     H        H           H        Q.     E   
--3--------3---------|--------------------|---------------------|
------------------1--|--L--------0--------|------------------3--|
---------------------|--------------------|--3--------3---------|
---------------------|--------------------|---------------------|


  H        H           H        Q.     E     H        H         
--------------------|---------------------|--------------------|
--L--------3--------|------------------1--|--L--------0--------|
--------------------|--1--------1---------|--------------------|
--------------------|---------------------|--------------------|


  H        H           E  E  E  E     H        H           H        H         
--0--------0--------|--0--2--4--5--|--L--------5--------|--------------------|
--------------------|--------------|--------------------|--5--------5--------|
--------------------|--------------|--------------------|--------------------|
--------------------|--------------|--------------------|--------------------|


  H        Q.     E     H        E  E  E  E     H        H         
--2--------0---------|-----------0--2--4-----|--------------------|
------------------3--|--L--------------------|--------------------|
---------------------|--------------------3--|--L--------3--------|
---------------------|-----------------------|--------------------|


  H        H           H        Q.     E     H        E  E  E  E   
--0-----------------|--2--------0---------|-----------0--2--4--5--|
-----------2--------|------------------3--|--L--------------------|
--------------------|---------------------|-----------------------|
--------------------|---------------------|-----------------------|


  H        Q.     E     H        H           H        Q.     E   
--L--------5---------|--------------------|--3--------3---------|
------------------3--|--L--------3--------|------------------1--|
---------------------|--------------------|---------------------|
---------------------|--------------------|---------------------|


  H        H           H        Q.     E     H        H         
--------------------|---------------------|--------------------|
--L--------0--------|------------------3--|--L--------3--------|
--------------------|--3--------3---------|--------------------|
--------------------|---------------------|--------------------|


  H        Q.     E     H        H           H        H         
---------------------|--------------------|--0--------0--------|
------------------1--|--L--------0--------|--------------------|
--1--------1---------|--------------------|--------------------|
---------------------|--------------------|--------------------|


  H        H           H        H           E  E  E  E     H        H         
--0--------0--------|--0--------0--------|--0--2--4--5--|--L--------5--------|
--------------------|--------------------|--------------|--------------------|
--------------------|--------------------|--------------|--------------------|
--------------------|--------------------|--------------|--------------------|


  H        H           H        Q.     E     H        E  E  E  E   
--------------------|--2--------0---------|-----------0--2--4--5--|
--5--------2--------|------------------3--|--L--------------------|
--------------------|---------------------|-----------------------|
--------------------|---------------------|-----------------------|


  Q    Q    Q    Q       H        H           H        Q.     E   
--L-------------------|--0--------1--------|--2--------0---------|
------------2----3----|--------------------|------------------3--|
-------5--------------|--------------------|---------------------|
----------------------|--------------------|---------------------|


  H        Q.     E     H        Q.     E     H        Q.     E   
---------------------|---------------------|---------------------|
--L--------2------0--|--L--------2------3--|--L--------2------0--|
---------------------|---------------------|---------------------|
---------------------|---------------------|---------------------|


  H        Q.     E     Q    Q    Q    E  E     E  E  E  E  E  E  E  E   
---------------------|-----------------------|--------------0-----3--4--|
--L--------2------3--|--L----3----2-------0--|--L-----3-----------------|
---------------------|-----------------------|--------------------------|
---------------------|-----------------------|--------------------------|


  Q    E  H        E     Q    E  H        E     Q    E  H        E   
--5-------5--------L--|--5-------------------|----------5--------L--|
----------------------|----------------------|----------------------|
----------------------|----------3--------L--|--3-------------------|
----------------------|----------------------|----------------------|


  Q    E  H        E     Q    E  H        E     Q    E  E   
--5-------------------|----------------------|-------------|
----------------------|----------------------|-------------|
----------3--------L--|--3-------3--------L--|--3----------|
----------------------|----------------------|----------3--|


  H        H           H        H           H        H         
--------------------|-----------0--------|--------------------|
--------------------|--------------------|--------------------|
--------------------|--------------------|--------------------|
--L--------3--------|--3-----------------|--3--------3--------|


  H        H           H        H           H        H         
--0-----------------|-----------0--------|--------------------|
--------------------|--------------------|--------------------|
--------------------|--------------------|--------------------|
-----------3--------|--3-----------------|--3--------3--------|


  H        H           E  E  E  E     H        E  E  E  E   
--0-----------------|--------------|-----------------------|
--------------------|--------------|-----------------------|
--------------------|-----0--2--3--|--L--------L--2--0-----|
-----------3--------|--3-----------|--------------------3--|


  H        H           H        Q.     E     H        E  E  E  E   
--------------------|---------------------|-----------------------|
--------------------|---------------------|-----------------------|
--------------------|--0------------------|--------------0--2--3--|
--L--------0--------|-----------3------1--|--L--------3-----------|


  H        H           H        H           H        Q.     E   
--------------------|--------------------|---------------------|
--------------------|--------------------|---------------------|
--L--------3--------|--------------------|--0------------------|
--------------------|--3--------0--------|-----------3------1--|


  H        E  E  E  E     H        Q.     E     H        H         
-----------------------|---------------------|--------------------|
-----------------------|------------------3--|--L--------3--------|
--------------0--2--3--|--L--------3---------|--------------------|
--L--------3-----------|---------------------|--------------------|


  H        Q.     E     H        H           H        Q.     E   
---------------------|--------------------|---------------------|
------------------1--|--L--------0--------|------------------3--|
--1--------1---------|--------------------|--3--------3---------|
---------------------|--------------------|---------------------|


  H        H           H        Q    E  E     H        H         
--------------------|----------------------|--------------------|
--L--------3--------|-------------------1--|--L--------0--------|
--------------------|--1--------1----------|--------------------|
--------------------|----------------------|--------------------|


  H        H           H        H           H        H         
-----------0--------|-----------0--------|-----------0--------|
--------------------|--------------------|--------------------|
--------------------|--------------------|--------------------|
--3-----------------|--3-----------------|--3-----------------|


  H        H           H        H           H        H         
-----------0--------|-----------0--------|-----------0--------|
--------------------|--------------------|--------------------|
--------------------|--------------------|--------------------|
--3-----------------|--3-----------------|--3-----------------|


  H        H           E  E  E  E     W                   W                 
--------------------|--------------|-------------------|-------------------|
--------------------|--------------|-------------------|-------------------|
--------------------|-----0--2--3--|--L----------------|-------------------|
--3--------3--------|--3-----------|-------------------|-------------------|


  W                   H        H           W                 
-------------------|--------------------|-------------------|
-------------------|-----------3--------|-------------------|
-------------------|--0-----------------|--3----------------|
-------------------|--------------------|-------------------|


  H        H           W                   H        H         
--------------------|-------------------|--------------------|
-----------3--------|-------------------|-----------3--------|
--0-----------------|--3----------------|--0-----------------|
--------------------|-------------------|--------------------|


  W                   W                  
-------------------|-------------------||
-------------------|-------------------||
--3----------------|--3----------------||
-------------------|-------------------||




Duration Legend
---------------
W - whole
H - half
Q - quarter
E - 8th
S - 16th
T - 32nd
X - 64th
. - note dotted
|-n-|  - n-tuplets


Tablature Legend
----------------
L - tied note
x - dead note
g - grace note
(n) - ghost note
> - accentuded note
NH - natural harmonic
AH - artificial harmonic
TH - tapped harmonic
SH - semi harmonic
PH - pitch harmonic
h - hammer on
p - pull off
b - bend
br - bendRelease
pb - preBend
pbr - preBendRelease
brb - bendReleaseBend
\n/ - tremolo bar dip
\n - tremolo bar dive
-/n - tremolo bar Release up
/n\ - tremolo bar inverted dip
/n - tremolo bar return
-\n - tremolo bar Release down
S - shift slide
s - legato slide
/ -  slide into from below or out of upwards
\ -  slide into from above or out of downwards
~ - vibrato
W - wide vibrato
tr - trill
TP - tremolo picking
T - tapping
S - slap
P - pop
< - fade in
^ - brush up
v - brush down





Comments


Popular Aerosmith tabs & chords
Chip Away The Stone 1 Bass Tabs
I Don Want To Miss A Thing Bass Tabs
Walking The Dog Bass Tabs
Don't Wanna Miss A Thing Tabs
My Fist Your Face 1 Tabs
Shes On Fire Tabs
Three Mile Smile Intro Tabs
Walk This Way Intro 1 Tabs
Avant Garden Ukulele
Face Ukulele


Song lyrics



↑ Back to top | Tablatures and chords are parodies/interpretations of the original songs. You may use it for private study, scholarship, research or language learning purposes only
© 2014 AZChords.com Contact us | Privacy policy | DMCA | Add/correct tabs | Request tabs | Top 50 tabs