» » »

Aerosmith, Walkin The Dog Tabs (ver.1)

Artists:  A B C D E F G H I J K L M N O P Q R S T U V W X Y Z # 

Walkin The Dog Tabs (ver.1)

Aerosmith Tabs
Rating:
0/5 (0 votes)
Walkin The Dog lessons Tabs too difficult? Try these video lessons and learn fast
                NOTE: I DID NOT MAKE THIS TAB! CREDITS GO TO THE ORIGINAL CREATOR!


WALKIN' THE DOG

   intro-
   E------------------------|
   B------------------------|
   G--9-9------------9-7----|
   D--9-9------------9-7----|
   A--7-7------------7-7----|
   E--0-0------------0-0----|
   *repeat these two chords when appropriate

verse-
+-------------------------------------------------------------------|
+-------------------------------------------------------------------|
+-------------------------------------------------------------------|
+-----------5---2-----------5---2-----------5---2-------------------|
+---------2-------5-2-----2-------5-2-----2-------5-2---------------|
+-12\-0-0-------------0-0-------------0-0---------------------------|

+---------------------------|
+---------------------------|
+---------------------------|
+-5-5--4-4--3-3--2-2--0h2p0-|
+---------------------------|
+---------------------------|

This is how Brad plays the verse riff on "Unplugged:"
   E-----------------------|-------------------------------|
   B-----------------------|-------------------------------|
   G-----------------------|-------------------------------|
   D----------5~~~---------|--5-5--4-4--3-3--2-2--0h2p0----|
   A---------------7--5----|-------------------------------|
   E--0-0--7-------------7-|-------------------------------|


  Mary mack       dressed in black silver buttons up & down her back
+-------------------------------------------------------------------|
+-------------------------------------------------------------------|
+-------------------------------------------------------------------|
+-------5---2-----------5---2-----------5---2-----------5---2-------|
+-----2-------5-2-----2-------5-2-----2-------5-2-----2-------5-2---|
+-0-0-------------0-0-------------0-0-------------0-0---------------|

  How'd I know?   This she told. She broke a needle now she can't sew
+-------------------------------------------------------------------|
+-------------------------------------------------------------------|
+-------------------------------------------------------------------|
+-------5---2-----------5---2---------------------------------------|
+-----2-------5-2-----2-------5-2-2---------------------------------|
+-0-0-------------0-0-------------0---------------------------------|

Walkin' the dog      I'm just a walkin' your dog        well if you
+-------------------------------------------------------------------|
+-------------------------------------------------------------------|
+-------------------------------------------------------------------|
+------------2---4---5---4---2---4----------------------------------|
+------------0---0---0---0---0---0---2---4---5---4---2---4----------|
+------------------------------------0---0---0---0---0---0----------|

  Don't know how to do it, I'll show you how to walk the dog
+-------------------------------------------------------------------|
+-------------------------------------------------------------------|
+-------------------------------------------------------------------|
+--4--4--4--4--4--4--4--4--2--2--2--2--2--2--2--2--2-x-x-x-x-x-x-x--|
+--2--2--2--2--2--2--2--2--0--0--0--0--0--0--0--0--0-x-x-x-x-x-x-x--|
+-------------------------------------------------------------------|

    interlude-       *
   E-------------------|------------------------------------------------|
   B-------------------|------------------------------------------------|
   G-------------------|---------5/4---------------5/4------------------|
   D--------5p4--------|-------------7p5---------------7-5/-------------|
   A------------7p5----|---0-0-7---------7---0-0-7-------------\9-9-9-9-|
   E--0-0-7---------7--|---------------------------------------\7-7-7-7-|

   * repeat

   gtr.2 plays what sounds like these two notes during the interlude:

   E--3---------10-------------------|
   B--3---------10-------------------|
   G--0----------0-------------------|
   D---------------------------------|
   A---------------------------------|
   E---------------------------------|


This is how I play the variation at the end (Brad plays it a little
differently on "Unplugged"):
                                                   ...dog
   E-------------------------------------------------|-----|
   B---------------------------------------------2---|-----|
   G-----------------------------------------4---2---|-----|
   D---------5~~~--------5-4-3-2-------------4---2---|--2--|
   A--------------7-5----------------0-1-2---2---0---|--2--|
   E--0-0-7-----------7------------3-----------------|--0--|
            

comments powered by Disqus
↑ Back to top | Aerosmith Tabs for Walkin The Dog. Lyrics for acoustic guitar and electric guitar. Tablatures and chords are parodies/interpretations of the original songs. You may use it for private study, scholarship, research or language learning purposes only