» » »

Aerosmith, Uncle Salty Bass tabs (ver.1)

Artists:  A B C D E F G H I J K L M N O P Q R S T U V W X Y Z # 

Uncle Salty Bass tabs (ver.1)

Aerosmith Tabs
Rating:
0/5 (0 votes)
Hard to play? Try these video lessons and learn fast.
                Tuning: Standard

/ = slide toward
h = hammer-on
p = pull-off
H = hold/bend/ring

INTRO:
G--6--------7--------9--------7----------6--------7--------9--------7--------|
D----7-6-7----7-6-7----7-6-7----7-6-7------7-6-7----7-6-7----7-6-7----7-6-7--|
A----------------------------------------------------------------------------|
E----------------------------------------------------------------------------|

G---------------------------|
D--0-6-7--0-6-7-------------|
A---------------------------|
E---------------------------|

VERSE:
G------------------------------------------------------|
D----------6-7----------6-7----------6-7----------6-7--|
A-------4------------4------------4------------4-------|
E--12/4---------12/4---------12/4---------12/4---------| x 2

PRE CHORUS: "But when she cried at night..."
G---------------------------------------------------|
D-----------------2-0-2-4-2-4-5-4-5-6-6-6-----------|
A--------2--3--5---------------------------0--------|
E--0-3-3--------------------------------------------| x 2

VERSE 2

PRE CHORUS 2: "But when she cried at night..."
G---------------------------------------------------|
D-----------------2-0-2-4-2-4-5-4-5-6-6-6-----------|
A--------2--3--5---------------------------0--------|
E--0-3-3--------------------------------------------|

G-----------------------------------------------------------------------------|
D-----------------------------------------------------------7--------5--7p5---|
A-------------------------------------------0------------5/7---------------7--|
E--0-3-3-3-3-3-3-3-3--1-1-1-1--000000000000-----------------------------------|

CHORUS: "O0h it's a sunny day outside my window..."
G------------------------------------------------------------------------------|
D-----------5---7p5------------5---7p5------------5---7p5------------5---7p5---|
A--------5h7-------7--------5h7-------7--------5h7-------7--------5h7-------7--|
E--5------------------5------------------5------------------5------------------|

G------------------------------------------------------------------------------|
D-----------3---5p3------------5---7p5------------3---5p3------------5---7p5---|
A--------3h5-------5--------5h7-------7--------3h5-------5--------5h7-------7--|
E--3------------------5------------------3------------------5------------------|

SOLO:
G--6--------7--------9--------7----------6--------7--------9--------7--------|
D----7-6-7----7-6-7----7-6-7----7-6-7------7-6-7----7-6-7----7-6-7----7-6-7--|
A----------------------------------------------------------------------------|
E----------------------------------------------------------------------------|

VERSE 3:
G----------------------------------------------------------------------------|
D----------------------------------------------------------------------------|
A--0-00-00-00-00-00-00-00-00-00-00-00-00-00-00-00-00-00-00-00-00-00-00-00-00-| etc.
E----------------------------------------------------------------------------|

PRE CHORUS 3 (Same as Pre Chorus 2)

CHORUS 2: (Listen out for the variation)
G------------------------------------------------------------------------------|
D-----------5---7p5------------5---7p5------------5---7p5------------5---7p5---|
A--------5h7-------7--------5h7-------7--------5h7-------7--------5h7-------7--|
E--5------------------5------------------5------------------5------------------|

G----------------------9-7---5-------------------------------------------------|
D-----------5---7p5-------------9--7p5------------5---7p5------------5---7p5---|
A--------5h7-------7------------------7--------5h7-------7--------5h7-------7--|
E--5------------------5------------------5------------------5------------------|
                      (this part is to be
                       done after every 2
                                     bars)
            

comments powered by Disqus
↑ Back to top | Aerosmith Bass for Uncle Salty. Lyrics for acoustic guitar and electric guitar. Tablatures and chords are parodies/interpretations of the original songs. You may use it for private study, scholarship, research or language learning purposes only