» » »

Aerosmith, Three Mile Smile Tabs (ver.1)

Artists:  A B C D E F G H I J K L M N O P Q R S T U V W X Y Z # 

Three Mile Smile Tabs (ver.1)

Aerosmith Tabs
Rating:
0/5 (0 votes)
Three Mile Smile lessons Tabs too difficult? Try these video lessons and learn fast
                (Intro)
This is a pretty cool song and I'm surprised no one has tabbed it yet. So here's the intro.

e|-0----------------------------------|
B|-0----------------------------------|
G|-2------4---------------------------|
D|-2------4---------------------------|
A|-0------2----3-5-6-7-9-2------------|
E|---------------------------0--0--0--|


e|-0----------------------------------|
B|-0----------------------------------|
G|-2------4---------------------------|
D|-2------4---------------------------|
A|-0------2----3-5-6-7-9-2------------|
E|---------------------------0--3b--0-|


e|-0----------------------------------|
B|-0----------------------------------|
G|-2------4---------------------------|
D|-2------4---------------------------|
A|-0------2----3-5-6-7-9-2------------|
E|---------------------------0--0--0--|


e|-0----------------------------------|
B|-0----------------------------------|
G|-2------4---------------------------|
D|-2------4---------------------------|
A|-0------2----3-5-6-7-9-2---2--2--2--|
E|---------------------------0--0--0--|


Here is where the short drum fill is.


e|---------------------|---------------------|
B|---------------------|---------------------|
G|-9----8-7---------7--|--7----8-9---------9-|
D|-9----8-7------7--7--|--7----8-9------9--9-|
A|-7----6-5---5--5--5--|--5----6-7---7--7--7-|
E|---------------------|---------------------|


e|---------------------|---------------------|
B|---------------9--7--|---------------------|
G|-9----8-7------9--7--|--7----8-9---------9-|
D|-9----8-7------9--7--|--7----8-9------9--9-|
A|-7----6-5---5--------|--5----6-7---7--7--7-|
E|---------------------|---------------------|



Key:

b = Bend
            
Submit corrections

comments powered by Disqus
↑ Back to top | Aerosmith Tabs for Three Mile Smile. Lyrics for acoustic guitar and electric guitar. Tablatures and chords are parodies/interpretations of the original songs. You may use it for private study, scholarship, research or language learning purposes only