» » »

Same Old Song And Dance Tabs (ver.3)

Artists:  A B C D E F G H I J K L M N O P Q R S T U V W X Y Z # 

Same Old Song And Dance Tabs (ver.3)

Aerosmith
Rating:
0/5 (0 votes)

Tabs too difficult? Try these video lessons and learn fast.
                Here is the updated version of Same Old Story Same Old Song and Dance tab.
                           Updated 12/23/08 
                        Time: 5:18 and 23 seconds  
                          Please rate and comment
                                Thanx :p

E----------------------------------------------------------------|
B-10p8-8---------------------------------------------------------|
G-----9-9----------------------------------7---------------------|
D---------7br8-5~--7br8-5-7-5-7p5---7br8-9--5-7br8-7~-5-7p5------|
A--------------------------------7--------------------------7-7--|
E----------------------------------------------------------------|

Second solo
E---------------------------------------------------------------------------|
B-8-5-88-5-12h15b17-15br17p12----------------15b17-15b17-15p12--------------|
G-7-4-77-4-------------------12-14----12---12-----------------14-12-12------|
D----------------------------------14-12-14---------------------------14----|
A----------------------------------------14---------------------------------|
E-----------------------------------------------------------------------12/-|

|------------------------------------------------------------------------------|
|---------------------------------------------12-15br17-12------15b17-15b17----|
|-------------12-12----------12h14p13----12-14-------------12h14---------------|
|----------12-12-12----12h14----------14---------------------------------------|
|----12h14-----------12--------------------------------------------------------|
|-00----------------0----------------------------------------------------------|

|----------------------------------15-17/19-19-19~---|
|-12h15-15b17-15b17-15b17-12-15-12-------------------|
|----------------------------------------------------|
|----------------------------------------------------|
|----------------------------------------------------|
|----------------------------------------------------|

Third solo
E-17b20--15-17-15b17--------------------------------------------------------|
B--------------------17-15-17-15----------17-15---17-15--------15-----------|
G-------------------------------16-14b16~------16------16-14b16--14br16-----|
D---------------------------------------------------------------------------|
A---------------------------------------------------------------------------|
E---------------------------------------------------------------------------|

|---------------------------------------------------------------------------------|
|---------------------------------------12----12b.5-15b17-15b-15b-15b17-15br17p12-|
|-14b16-14~-12-14------12b12.5----14----------12b.5-------------------------------|
|----------------14~-14--------14----14----14-------------------------------------|
|---------------------------------------------------------------------------------|
|---------------------------------------------------------------------------------|

|--------------------------------------------------------------|
|------15-15---15-15-------------------------------------------|
|-14b16-----14b-----14br16p12-14br16p12------------------------|
|---------------------------------------14br16p12--12h14~~~----|
|------------------------------------------------14------------|
|--------------------------------------------------------------|
            
Tabs too difficult? Try these video lessons and learn fast.




comments powered by Disqus
↑ Back to top | Tablatures and chords are parodies/interpretations of the original songs. You may use it for private study, scholarship, research or language learning purposes only