» » »

Aerosmith, Movin Out Bass tabs (ver.1)

Artists:  A B C D E F G H I J K L M N O P Q R S T U V W X Y Z # 

Movin Out Bass tabs (ver.1)

Aerosmith Tabs
 Rating:
4/5 (4 votes)
Movin Out lessons Tabs too difficult? Try these video lessons and learn fast
                Aerosmith
Movin Out
basic bass tab

  verse
|----------------|
|---------056777\|*
|----------------|*
|35-03-5---------|

  chorus
|----------------|----------------|
|----------------|----------------|
|0-02-3--0-02-3--|0-02-3-3-5------|
|----------------|-----------3-5--|

|----------------|---------------|
|----------------|---------------|
|0-02-3--0-02-3--|0-02-3-3-5-----|
|----------------|-----------3-5-|

|----------------|----------------|----------------|--------^^-^----|
|---------777777-|---------777777-|---------7777775|03--3--53030-^--|
|0---------------|----------------|----------------|------------30--|
|----------------|----------------|----------------|--------------3-|

  solo
|----------------|
|---------777777\|*
|------0---------|*
|35-03-----------|

  bridge
|------------9---|-----------^^-7-|
|7---------07--7-|9---------057---|*
|----------------|----------------|*
|----------------|----------------|

|----------------|----------------|----------------|----------------|----|
|----------------|----------------|----------------|----------------|----|
|3-3-3-3-33333333|4444444444444444|5555555566666666|7777888899991011|12--|
|----------------|----------------|----------------|----------------|----|

|----------------|----------------|----------------|----------------|----|
|----------------|----------------|----------------|----------------|----|
|------------12--|0-----------12--|------------12--|0-----------12--|----|
|-------------12\|-------------12\|8------------12\|-------------12\|8---|

  end verse
|----------------|
|----------------|*
|------0--12....\|*
|35-03-----------|

  end chorus
|----------------|----------------|
|----------------|----------------|
|0-02-3--0-02-3--|0-02-3-3-5------|
|----------------|-----------3-5--|

|----------------|---------------|----|
|----------------|---------------|0---|
|0-02-3--0-02-3--|0-02-3-3-5-----|----|
|----------------|-----------3-5-|----|


standard tuning (EADG)

| /  slide up
| \  slide down

| .   incidental note (usually open string)
| ^   pre-struck note (hammer-on, pull-off)
| =   rest

| X   10
| E   11
| T   12


display in fixed-width font
one space ("-") = 1/16 note

spaceyhippie
dudeman.net/jam
            
Submit corrections

comments powered by Disqus
↑ Back to top | Aerosmith Bass for Movin Out. Lyrics for acoustic guitar and electric guitar. Tablatures and chords are parodies/interpretations of the original songs. You may use it for private study, scholarship, research or language learning purposes only