» » »

Milkcow Blues Bass tabs (ver.1)

Artists:  A B C D E F G H I J K L M N O P Q R S T U V W X Y Z # 

Milkcow Blues Bass tabs (ver.1)

Aerosmith
Rating:
0/5 (0 votes)

Hard to play? Try these video lessons and learn fast.
                -------------------------------------------------------------------------------
			     Milk Cow Blues - Aerosmith
-------------------------------------------------------------------------------


Tuning: standard EADG

Intro, bridge, verse:
G|-------------------------------------------------------------------------|
D|-------------------------------------------------------------------------|
A|-------------------------------------------------------------------------|x3
E|3-3-3-3-3-3-3-3-3-3-3-3-3-3-3-3-3-3-3-3-3-3-3-3-3-3-3-3-3-3-3-3----------|

Bridge:
G|---------------------------------------------------------------------------|
D|----------------5--3-------------------------------------------------------|
A|----------------------5--3-------------------------------------------------|
E|3-3-3-3-3-3-3-3------------6-----------------------------------------------|

Chorus:
G|---------------------------------------------------------------------------|
D|---------------------------------------------------------------------------|
A|x-3--1--x-1--x-3--1--x-1--x-3--1-------------------------------------------|
E|----------------------------------3--1-------------------------------------|

G|---------------------------------------------------------------------------|
D|---------------------------------------------------------------------------|
A|------1-------1--------1--------1-3-5-5-5-5-5-5-5-4-3-3-3-3-3--------------|
E|3-3-13--3-3-13---3-3-13---3-3-13------------------------------6-6-5--------|


Bridge:
G|---------------------------------------------------------------------------|
D|---------------------------------------------------------------------------|
A|------1--------1--------1--------1-----------------------------------------|
E|3-3-13---3-3-13---3-3-13---3-3-13------------------------------------------|

G|---------------------------------------------------------------------------|
D|------------------------------------------------5--3-----------------------|
A|------------------------------------------------------5--3-----------------|
E|3-3-3-3-3-3-3-3-3-3-3-3-3-3-3-3-3-3-3-3-3-3-3-3-------------6--------------|

Chorus:
G|---------------------------------------------------------------------------|
D|---------------------------------------------------------------------------|
A|x-3--1--x-1--x-3--1--x-1--x-3--1-------------------------------------------|
E|----------------------------------3--1-------------------------------------|

G|---------------------------------------------------------------------------|
D|---------------------------------------------------------------------------|
A|------1-------1--------1--------1-3-5-5-5-5-5-5-5-4-3-3-3-3----------------|
E|3-3-13--3-3-13---3-3-13---3-3-13----------------------------6-6-6-5--------|

Bridge:
G|---------------------------------------------------------------------------|
D|---------------------------------------------------------------------------|
A|------1--------1--------1--------1----------1------------------------------|
E|3-3-13---3-3-13---3-3-13---3-3-13---3--1--3--------------------------------|

Solo:
G|---------------------------------------------------------------------------|
D|---------------------------------------------------------------------------|
A|3-3-3-3-3-3-3-3-3-3-3-3-3-3-3-1-----------------------------1-3------------|
E|--------------------------------3-3-3-3-3-3-3-3-3-3-3-3-3-3----------------|

G|---------------------------------------------------------------------------|
D|---------------------------------------------------------------------------|
A|5-5-5-5-5-5-5-5-5-5-5-5-5-5-5-5-3-3-3-3-3-3-1-1----------------------------|
E|---------------------------------------------------------------------------|

G|---------------------------------------------------------------------------|
D|---------------------------------------------------------------------------|
A|------1--------1--------1--------1--------1-2------------------------------|
E|3-3-13---3-3-13---3-3-13---3-3-13---3--5-----------------------------------|

G|---------------------------------------------------------------------------|
D|---------------------------------------------------------------------------|
A|3-3-3-3-3-3-3-3-3-3-3-3-3-3-2-1-------------------------------3------------|
E|--------------------------------3-3-3-3-3-3-3-3-3-3-3-3-3-3-6--------------|

G|---------------------------------------------------------------------------|
D|---------------------------------------------------------------------------|
A|5-5-5-5-5-5-5-4-3-3-3-3-3-3-3-1-------1--------1--------1--------1---------|
E|--------------------------------3-3-13---3-3-13---3-3-13---3-3-13----------|

Bridge:
G|-------------------------------------------------------------------------|
D|-------------------------------------------------------------------------|
A|-------------------------------------------------------------------------|x2
E|3-3-3-3-3-3-3-3-3-3-3-3-3-3-3-3-3-3-3-3-3-3-3-3-3-3-3-3-3-3-3-3----------|

G|---------------------------------------------------------------------------|
D|5--3-----------------------------------------------------------------------|
A|------5--3-----------------------------------------------------------------|
E|-----------6---------------------------------------------------------------|

Chorus:
G|---------------------------------------------------------------------------|
D|---------------------------------------------------------------------------|
A|x-3--1--x-1--x-3--1--x-1--x-3--1-------------------------------------------|
E|----------------------------------3--1-------------------------------------|

G|---------------------------------------------------------------------------|
D|---------------------------------------------------------------------------|
A|------1-------1--------1--------1-3-5-5-5-5-5-5-5-4-3-3-3-3----------------|
E|3-3-13--3-3-13---3-3-13---3-3-13----------------------------6-6-5-5--------|

Bridge:
G|---------------------------------------------------------------------------|
D|---------------------------------------------------------------------------|
A|------1--------1--------1--------1-----------------------------------------|
E|3-3-13---3-3-13---3-3-13---3-3-13------------------------------------------|

G|---------------------------------------------------------------------------|
D|---------------------------------------------------------------------------|
A|---------------------------------------------------------------------------|
E|3-3-3-3-3-3-3-3-3-3-3-3-3-3-3-3-3-3-3-3-3-3-3-3-3-3-3-3-3-3-3-3------------|

G|---------------------------------------------------------------------------|
D|---------------------------------------------------------------------------|
A|---------------------------------------------------------------------------|
E|3-3-3-3-3-3-3-3-3-3-3-3-3-3-3-3-3-3-3-3-3-3-3-3-3-3-3-3-3-3-3-0------------|

Outro:
G|-------------------------------------------------------------------------|
D|-------------------------------------------------------------------------|
A|-------------------------------------------------------------------------|x3
E|1-1-1-1-1-1-1-1-3-3-3-3-3-3-3-3-1-1-1-1-1-1-1-1-3-3-3-3-3-3-3-3----------|

G|---------------------------------------------------------------------------|
D|------------------------------------------------5-----3--------------------|
A|----------------------------------------3--3-------------------------------|
E|1-1-1-1-1-1-1-1-3-3-3-3-3-3-3-3--1-----------------------------------------|

G|---------------------------------------------------------------------------|
D|5--3-----------------------------------------------------------------------|
A|------5--4--3--1--h3p1h3p1h3p1---------------------------------------------|
E|-------------------------------------3\------------------------------------|



===============================================================================
Notes:

According to Wikipedia, this song was originally recorded by James 'Kokomo'
Arnold in 1934. The band The Kinks made a cover for it in 1965 (and a couple of
other artists too before and after them), then Aerosmith did it too in 1977.
Their version is pretty much the same as The Kinks'.

I'm not sure about the first bridge, maybe the main melody is played under it,
this one:

G|-------------------------------------|
D|-------------------------------------|
A|------1--------1--------1--------1---|
E|3-3-13---3-3-13---3-3-13---3-3-13----|

I think both are sound good though...

If You have problems with this tab, write me a mail what's wrong with it
instead of giving it a bad rating! It'd better for everyone! Thx!


| /  slide up
| \  slide down
| h  hammer-on
| p  pull-off
| ~  vibrato
| +  harmonic
| x  Mute note
===============================================================================
            
Hard to play? Try these video lessons and learn fast. | Correct




comments powered by Disqus
↑ Back to top | Tablatures and chords are parodies/interpretations of the original songs. You may use it for private study, scholarship, research or language learning purposes only