» » »

Hangman Jury Bass tabs (ver.1)

Artists:  A B C D E F G H I J K L M N O P Q R S T U V W X Y Z # 

Hangman Jury Bass tabs (ver.1)

Aerosmith
Rating:
0/5 (0 votes)

Tabs too difficult? Try these video lessons and learn fast.
                ---I DID NOT MAKE THIS TAB! CREDITS GO TO THE ORIGINAL PERSON WHO MADE IT!!!


Start playing at 1:28

G---------|| 
D---------||x4 
A---------|| 
E-3-3-3-3-||

G---------------------------------------------------------------| 
D-------------------------------------2-2-3-3-5-5---------------| 
A---------2-2-3-5---------2-2-3-3-5-5---------------------------| 
E-3-3-5-5---------3-3-5-5-------------------------5555555555555-| 

G---------------------|| 
D---------------3-----||x4 
A-0/5--0/3--0/35-535--||
E---------------------|| 

G---------|| 
D---------||x4 
A---------|| 
E-3-3-3-3-||

G-------------------------------------------------| 
D-------------------------------------2-2-3-3-5-5-| 
A---------2-2-3-5---------2-2-3-3-5-5-------------| 
E-3-3-5-5---------3-3-5-5-------------------------|

G--------------------------------------------------------------------------------------| 
D--------------------------------------------------------------------------------------| 
A-----33335555555555553333------------33335555555555553333------------3333555555555555-| 
E-5555--------------------555555555555--------------------555555555555-----------------|

G------| 
D------| 
A-3333-|
E------| 

G--------------------|| 
D---------------3----||x4 
A-0/5--0/3--0/35-535-||
E--------------------||

G---------|| 
D---------||x4 
A---------|| 
E-3-3-3-3-||

G-------------------------------------------------| 
D-------------------------------------2-2-3-3-5-5-| 
A---------2-2-3-5---------2-2-3-3-5-5-------------| 
E-3-3-5-5---------3-3-5-5-------------------------| 

G--------------------------------------------------------------------------------------| 
D--------------------------------------------------------------------------------------| 
A-----33335555555555553333------------33335555555555553333------------3333555555555555-| 
E-5555--------------------555555555555--------------------555555555555-----------------|

G------|
D------|
A-3333-|
E------|

G--------------------|| 
D---------------3----||x2 
A-0/5--0/3--0/35-535-||
E--------------------|| 
            
Tabs too difficult? Try these video lessons and learn fast.




comments powered by Disqus
↑ Back to top | Tablatures and chords are parodies/interpretations of the original songs. You may use it for private study, scholarship, research or language learning purposes only